Log in

One click and you are in

Login with Facebook Login with Google

Why sign up and log in

Guitar Tabs Explorer
Extreme bass tabs for Rest in peace

Bass tabs with lyrics

  • Difficulty: Intermediate
Tuning: Half-Step Down (Eb Ab Db Gb)


INTRO, Part 1 (Symphony):

        (Rest x6)
Gb |---------------------------------|
Db |---------------------------------|
Ab |---------------------------------|
Eb |-r-------------------------------|
   1  &  2  &  3  &  4  &

(Part 2):

     (Guitar in; rest x4)
Gb |---------------------------------|
Db |---------------------------------|
Ab |---------------------------------|
Eb |-r-------------------------------|
   1  &  2  &  3  &  4  &

Gb |---------------------------------|---------------------------------|
Db |---------------------------------|---------------------------------|
Ab |---------------------------------|---------------------------------|
Eb |-0---r-------------------0---r---|-0---r-------------------0---r---|
   1  &  2  &  3  &  4  &   1  &  2  &  3  &  4  &

                   9/8
Gb |---------------------------------|-------------------------------------|
Db |---------------------------------|-------------------------------------|
Ab |---------------------------------|-------------------------------------|
Eb |-0---r-------------------0---r---|-0---r---------------0---0---r---5---|
   1  &  2  &  3  &  4  &   1  &  2  &  3  &  4  &  5


VERSE 1:
                 (x3)
     .  .  .  .  .  .  .   .  .  .
Gb |---------------------------------|---------------------------------|
Db |---------------------------------|---------------------------------|
Ab |---------------------------------|---------------------------------|
Eb |(5)--5---5---5---5---5---5---5---|-5---5---5---5-\-2---3---4---5---|
   1  &  2  &  3  &  4  &   1  &  2  &  3  &  4  &

     .  .  .  .  .  .  .   .  .  .
Gb |---------------------------------|---------------------------------|
Db |---------------------------------|---------------------------------|
Ab |---------------------------------|---------------------------------|
Eb |(5)--5---5---5---5---5---5---5---|-5---5---5---5-\-2---3---4---r---|
   1  &  2  &  3  &  4  &   1  &  2  &  3  &  4  &


PRE-CHORUS:

Gb |---------------------------------|---------------------------------|
Db |---------------------------------|---------------------------------|
Ab |-----------------------------4---|(4)--4---4---4---4---4---4-------|
Eb |-5---5---5---5---4---4---r-------|-----------------------------0---|
   1  &  2  &  3  &  4  &   1  &  2  &  3  &  4  &

           .
Gb |---------------------------------|---------------------------------|
Db |---------------------------------|---------------------------------|
Ab |-----------------------------4---|(4)--4-----/-7-------7---7---7---|
Eb |-5---5---5---5---4---4---r-------|---------------------------------|
   1  &  2  &  3  &  4  &   1  &  2  &  3  &  4  &

           .
Gb |---------------------------------|---------------------------------|
Db |---------------------------------|---------------------------------|
Ab |-----------------------------4---|(4)--4-------2-------2-----------|
Eb |-5---5---5---5---4---4---r-------|-----------------------------2---|
   1  &  2  &  3  &  4  &   1  &  2  &  3  &  4  &

     .  .  .  .  .  .  .   .  .  .  .  .
Gb |---------------------------------|---------------------------------|
Db |---------------------------------|---------------------------------|
Ab |---------------------------------|---------------------------------|
Eb |(2)--2---2---2---2---2---2---2---|-2---2---2---2---2---2---r---3---|
   1  &  2  &  3  &  4  &   1  &  2  &  3  &  4  &

     .    .  .  .  .  .   .  .  .  .  .
Gb |---------------------------------|---------------------------------|
Db |-----------4---------------------|---------------------------------|
Ab |---------------------------------|---------------------------------|
Eb |(3)--2---2---2---2---2---2---2---|-2---2---2---2---2---2---r---3---|
   1  &  2  &  3  &  4  &   1  &  2  &  3  &  4  &

     .    .  .  .  .  .   .
Gb |---------------------------------|---------------------------------|
Db |-----------4---------------------|---------------------------------|
Ab |---------------------------------|---------------------------------|
Eb |(3)--2---2---2---2---2---2---2---|-2---2---2---2---2---3---/---0---|
   1  &  2  &  3  &  4  &   1  &  2  &  3  &  4  &


CHORUS 1:
     .  .  .  .  .  .  .   .  .  .  .  .  .  .  .
Gb |---------------------------------|---------------------------------|
Db |---------------------------------|---------------------------------|
Ab |---------------------------------|---------------------------------|
Eb |(0)--0---0---0---0---0---0---0---|-0---0---0---0---0---0---0---0---|
   1  &  2  &  3  &  4  &   1  &  2  &  3  &  4  &

   .  .  .  .  .  .  .  .   .  .  .  .
Gb |---------------------------------|---------------------------------|
Db |---------------------------------|---------------------------------|
Ab |---------------------------------|---------------------5h7---------|
Eb |-0---0---0---0---0---0---0---0---|-0---0---0---0---0-------5h7-0---|
   1  &  2  &  3  &  4  &   1  &  2  &  3  &  4  &

Gb |---------------------------------|---------------------------------|
Db |-----------------------------5---|(5)------------------------------|
Ab |-----4---5-------5---7-----------|---------4-------5---7-----------|
Eb |(0)----------0-----------0-------|-----0-------0-----------3^--0---|
   1  &  2  &  3  &  4  &   1  &  2  &  3  &  4  &

Gb |---------------------------------|---------------------------------|
Db |-----------------------------5---|(5)------------------------------|
Ab |-----7---4-------5---7-----------|---------4-------5---7-----------|
Eb |(0)7---------0-----------0-------|-----0-------0-----------3---5---|
   1  &  2  &  3  &  4  &   1  &  2  &  3  &  4  &

     .  .  .  .           .  .  .  .  .
Gb |---------------------------------|---------------------------------|
Db |---------------------------------|---------------------------------|
Ab |---------------------------------|---------------------------------|
Eb |(5)--5---5---5---5---5-------3---|(3)--3---3---3---3---3---3---2---|
   1  &  2  &  3  &  4  &   1  &  2  &  3  &  4  &

     .  .  .  .  .  .  .
Gb |---------------------------------|---------------------------------|
Db |---------------------------------|---------------------------------|
Ab |---------------------------------|---------------------------------|
Eb |(2)--2---2---2---2---2---2---2---|-2---r-----------------------5---|
   1  &  2  &  3  &  4  &   1  &  2  &  3  &  4  &


VERSE 2:
     .  .  .  .  .  .  .   .  .  .
Gb |---------------------------------|---------------------------------|
Db |---------------------------------|---------------------------------|
Ab |---------------------------------|---------------------------------|
Eb |(5)--5---5---5---5---5---5---5---|-5---5---5---5-\-2---3---4---5---|
   1  &  2  &  3  &  4  &   1  &  2  &  3  &  4  &

     .  .  .  .  .  .  .   .  .  .
Gb |---------------------------------|---------------------------------|
Db |---------------------------------|---------------------------------|
Ab |---------------------------------|-------------------------3^------|
Eb |(5)--5---5---5---5---5---5---5---|-5---5---5---5-\-2---3-------5---|
   1  &  2  &  3  &  4  &   1  &  2  &  3  &  4  &

     .  .  .  .  .  .  .   .  .  .
Gb |---------------------------------|---------------------------------|
Db |---------------------------------|---------------------------------|
Ab |---------------------------------|---------------------------------|
Eb |(5)--5---5---5---5---5---5---5---|-5---5---5---5-\-2---3---4---5---|
   1  &  2  &  3  &  4  &   1  &  2  &  3  &  4  &

     .  .  .  .  .  .  .   .  .  .
Gb |---------------------------------|---------------------------------|
Db |---------------------------------|---------------------------------|
Ab |---------------------------------|---------------------------------|
Eb |(5)--5---5---5---5---5---5---5---|-5---5---5---5-\-2---3---4---r---|
   1  &  2  &  3  &  4  &   1  &  2  &  3  &  4  &


PRE-CHORUS:

Gb |---------------------------------|---------------------------------|
Db |---------------------------------|---------------------------------|
Ab |-----------------------------4---|(4)--4---4---4---4---4---4-------|
Eb |-5---5---5---5---4---4---r-------|-----------------------------0---|
   1  &  2  &  3  &  4  &   1  &  2  &  3  &  4  &

           .
Gb |---------------------------------|---------------------------------|
Db |---------------------------------|---------------------------------|
Ab |-----------------------------4---|(4)--4---/---7-------7---7---7---|
Eb |-5---5---5---5---4---4---r-------|---------------------------------|
   1  &  2  &  3  &  4  &   1  &  2  &  3  &  4  &

   .  .  .    .
Gb |---------------------------------|---------------------------------|
Db |---------------------------------|---------------------------------|
Ab |-----------------------------4---|(4)--4-------2-------2-----------|
Eb |-5---5---5---5---4---4---r-------|-----------------------------2---|
   1  &  2  &  3  &  4  &   1  &  2  &  3  &  4  &

     .  .  .  .  .  .  .   .  .  .  .  .
Gb |---------------------------------|---------------------------------|
Db |---------------------------------|---------------------------------|
Ab |---------------------------------|---------------------------------|
Eb |(2)--2---2---2---2---2---2---2---|-2---2---2---2---2---2---r---3---|
   1  &  2  &  3  &  4  &   1  &  2  &  3  &  4  &

     .  .  .  .  .  .  .   .  .  .  .  .
Gb |---------------------------------|---------------------------------|
Db |---------------------------------|---------------------------------|
Ab |---------------------------------|---------------------------------|
Eb |(3)--2---2---2---2---2---2---2---|-2---2---2---2---2---2---r---3---|
   1  &  2  &  3  &  4  &   1  &  2  &  3  &  4  &

     .    .  .  .  .  .   .
Gb |---------------------------------|---------------------------------|
Db |-----------4---------------------|---------------------------------|
Ab |---------------------------------|---------------------------------|
Eb |(3)--2---2---2---2---2---2---2---|-2---2---2---2---2---3---/---0---|
   1  &  2  &  3  &  4  &   1  &  2  &  3  &  4  &


CHORUS 2:
     .  .  .  .  .  .  .   .  .  .  .  .  .  .  .
Gb |---------------------------------|---------------------------------|
Db |---------------------------------|---------------------------------|
Ab |---------------------------------|---------------------------------|
Eb |(0)--0---0---0---0---0---0---0---|-0---0---0---0---0---0---0---0---|
   1  &  2  &  3  &  4  &   1  &  2  &  3  &  4  &

   .  .  .  .  .  .  .  .
Gb |---------------------------------|---------------------------------|
Db |---------------------------------|---------------------------------|
Ab |---------------------------------|---------5h7-----5h7-------------|
Eb |-0---0---0---0---0---0---0---0---|-0---5h7-----5h7-----5---7---0---|
   1  &  2  &  3  &  4  &   1  &  2  &  3  &  4  &

Gb |---------------------------------|---------------------------------|
Db |-----------------------------5---|(5)------------------------------|
Ab |-----4---5-------5---7-----------|---------4-------5---7-----------|
Eb |(0)----------0-----------0-------|-----0-------0-----------3^--0---|
   1  &  2  &  3  &  4  &   1  &  2  &  3  &  4  &

Gb |---------------------------------|---------------------------------|
Db |-----------------------------5---|(5)------------------------------|
Ab |---------4-------5---7-----------|---------4-------5---7-----------|
Eb |(0)--0-------0-----------0-------|-----0-------0-----------3---5---|
   1  &  2  &  3  &  4  &   1  &  2  &  3  &  4  &

Gb |---------------------------------|---------------------------------|
Db |---------------------------------|---------------------------------|
Ab |---------------------------------|---------------------------------|
Eb |(5)--------------------------3---|(3)----------------------------/-|
   1  &  2  &  3  &  4  &   1  &  2  &  3  &  4  &

   <
Gb |---------------------------------|---------------------------------|
Db |---------------------------------|---------------------------------|
Ab |-5---5---5---5---5---5---5---5---|-5---5---5---5---5---r-----------|
Eb |---------------------------------|---------------------------------|
   1  &  2  &  3  &  4  &   1  &  2  &  3  &  4  &


GUITAR SOLO (Part 1):
   .  .  .  .  .  .  .  .   .  .  .  .  .    .
Gb |---------------------------------|---------------------------------|
Db |---------------------------------|---------------------------------|
Ab |---------------------------------|-------------------------8---8---|
Eb |-5---5---5---5---5---5---5---5---|-5---5---5---5---5---5-----------|
   1  &  2  &  3  &  4  &   1  &  2  &  3  &  4  &

   .    .  .  .  .  .  .   .  .  .  .  .    .
Gb |---------------------------------|---------------------------------|
Db |---------------------------------|---------------------------------|
Ab |-7---7---------------------------|-------------------------8---8---|
Eb |---------5---5---5---5---5---5---|-5---5---5---5---5---5-----------|
   1  &  2  &  3  &  4  &   1  &  2  &  3  &  4  &

   .  .  .  .  .  .       .  .  .  .  .
Gb |---------------------------------|---------------------------------|
Db |---------------------------------|---------------------------------|
Ab |-5---5---5---5---5---5---5---8---|-8---8---8---8---8---8-----\-----|
Eb |---------------------------------|-----------------------------3---|
   1  &  2  &  3  &  4  &   1  &  2  &  3  &  4  &

     .  .  .  .  .  .  .   .  .  .  .
Gb |---------------------------------|---------------------------------|
Db |---------------------------------|---------------------------------|
Ab |---------------------------------|---------------------0---2---3---|
Eb |(3)--3---3---3---3---3---3---3---|-3---3---3---3---3---------------|
   1  &  2  &  3  &  4  &   1  &  2  &  3  &  4  &

(Part 2):
     .  .  .  .  .         .  .  .  .
Gb |---------------------------------|---------------------------------|
Db |---------------------------------|---------------------------------|
Ab |(3)--3---3---3---3---3---3---1---|(1)--1---1---1---1---1---0-------|
Eb |---------------------------------|-----------------------------1---|
   1  &  2  &  3  &  4  &   1  &  2  &  3  &  4  &

     .  .  .  .  .         .  .  .  .
Gb |---------------------------------|---------------------------------|
Db |---------------------------------|---------------------------------|
Ab |-----------------------------1---|(1)--1---1---1---1---1-----/-3---|
Eb |(1)--1---1---1---1---1---1-------|---------------------------------|
   1  &  2  &  3  &  4  &   1  &  2  &  3  &  4  &

     .  .  .  .  .         .  .  .  .        7/8 .  .  .  .  .
Gb |---------------------------------|---------------------------------|-----------------------------|
Db |---------------------------------|---------------------------------|-----------------------------|
Ab |(3)--3---3---3---3---3---3---1---|(1)--1---1---1---1---1---0-------|-----------------------------|
Eb |---------------------------------|-----------------------------1---|(1)--1---1---1---1---1---1-/-|
   1  &  2  &  3  &  4  &   1  &  2  &  3  &  4  &   1  &  2  &  3  &  4


PRE-CHORUS:

Gb |---------------------------------|---------------------------------|
Db |---------------------------------|---------------------------------|
Ab |-7-------\---\---\---r-----------|---------------------------------|
Eb |-------------------------0---r---|-0---r-------------------0---r---|
   1  &  2  &  3  &  4  &   1  &  2  &  3  &  4  &

Gb |---------------------------------|---------------------------------|
Db |---------------------------------|--------------------/9-r---------|
Ab |---------------------------------|-------------------------10------|
Eb |-0---r-------------------0---r---|-0---r---------------------------|
   1  &  2  &  3  &  4  &   1  &  2  &  3  &  4  &

Gb |---------------------------------|---------------------------------|
Db |---------------------------------|---------------------------------|
Ab |-7-------\---\---\---r-----------|---------------------------------|
Eb |-------------------------0---r---|-0---r-------------------0---r---|
   1  &  2  &  3  &  4  &   1  &  2  &  3  &  4  &

                   9/8
Gb |---------------------------------|-----------------------------------------|
Db |---------------------------------|-----------------------------------------|
Ab |---------------------------------|-----------------------------------------|
Eb |-0---r-------------------0---r---|-0---r---------------0---r---------------|
   1  &  2  &  3  &  4  &   1  &  2  &  3  &  4  &  5  &


CHORUS 3:

Gb |---------------------------------|---------------------------------|
Db |---------------------------------|---------------------------------|
Ab |-r---7-------5-------5---5---5---|---------------------------------|
Eb |---------------------------------|-5---5---5---5---5---5---3^--0---|
   1  &  2  &  3  &  4  &   1  &  2  &  3  &  4  &

     .  .  .  .  .  .  .     .  .  .
Gb |---------------------------------|---------------------------------|
Db |---------------------------------|-------------------5-------------|
Ab |---------------------------------|---7-----------------------------|
Eb |(0)--0---0---0---0---0---0---0---|-0---0---0---0---0---3---5---0---|
   1  &  2  &  3  &  4  &   1  &  2  &  3  &  4  &

Gb |---------------------------------|---------------------------------|
Db |-----------------------------5---|(5)------------------------------|
Ab |-----4---5-------5---7-----------|---------4-------5---7-----------|
Eb |(0)----------0-----------0-------|-----0-------0-----------3^--0---|
   1  &  2  &  3  &  4  &   1  &  2  &  3  &  4  &

Gb |---------------------------------|---------------------------------|
Db |-----------------------------5---|(5)------------------------------|
Ab |---------4-------5---7-----------|---------4-------5---7-----------|
Eb |(0)--0-------0-----------0-------|-----0-------0-----------3---5---|
   1  &  2  &  3  &  4  &   1  &  2  &  3  &  4  &

     .  .  .  .  .         .  .  .    .
Gb |---------------------------------|---------------------------------|
Db |---------------------------------|-------------------5-------------|
Ab |---------------------------------|---------------------------------|
Eb |(5)--5---5---5---5---5---5---3---|(3)--3---3---3---3---3---3---2---|
   1  &  2  &  3  &  4  &   1  &  2  &  3  &  4  &

     .  .  .  .  .  .  .
Gb |---------------------------------|---------------------------------|
Db |---------------------------------|---------------------------------|
Ab |---------------------------------|-----------------4---5---6---7---|
Eb |(2)--2---2---2---2---2---2---2---|-2---3---4---5-------------------|
   1  &  2  &  3  &  4  &   1  &  2  &  3  &  4  &


OUT-CHORUS:
     .  .  .  .  .  .  .   .  .  .  .  .  .  .  .
Gb |---------------------------------|---------------------------------|
Db |---------------------------------|---------------------------------|
Ab |(7)------------------------------|---------------------------------|
Eb |-----0---0---0---0---0---0---0---|-0---0---0---0---0---0---0---0---|
   1  &  2  &  3  &  4  &   1  &  2  &  3  &  4  &

   .  .  .  .  .  .  .  .   .  .  .  .
Gb |---------------------------------|---------------------------------|
Db |---------------------------------|---------------------------------|
Ab |---------------------------------|---------------------------------|
Eb |-0---0---0---0---0---0---0---0---|-0---0---0---0---0---5---7---0---|
   1  &  2  &  3  &  4  &   1  &  2  &  3  &  4  &

Gb |---------------------------------|---------------------------------|
Db |-----------------------------5---|(5)------------------------------|
Ab |-----4---5-------5---7-----------|---------4-------5---7-----------|
Eb |(0)----------0-----------0-------|-----0-------0-----------3^--0---|
   1  &  2  &  3  &  4  &   1  &  2  &  3  &  4  &

Gb |---------------------------------|---------------------------------|
Db |-----------------------------5---|(5)------------------------------|
Ab |---------4-------5---7-----------|---------4-------5---7-----------|
Eb |(0)--0-------0-----------0-------|-----0-------0-----------3---5---|
   1  &  2  &  3  &  4  &   1  &  2  &  3  &  4  &

                          vf
     .  .  .  .  .         .  .  .  .  .
Gb |---------------------------------|---------------------------------|
Db |---------------------------------|---------------------------------|
Ab |---------------------------------|---------------------------------|
Eb |(5)--5---5---5---5---5---5---3---|(3)--3---3---3---3---3---3---2---|
   1  &  2  &  3  &  4  &   1  &  2  &  3  &  4  &

     .  .  .  .  .  .
Gb |---------------------------------|---------------------------------|
Db |---------------------------------|-7---5-------5-------------------|
Ab |---------------------------------|---------7-------7---6---5---3^--|
Eb |(2)--2---2---2---2---2---2---2-/-|---------------------------------|
   1  &  2  &  3  &  4  &   1  &  2  &  3  &  4  &

                                   vo
   .  .  .  .  .  .  .  .   .  .  .  .  .  .  .  .
Gb |---------------------------------|---------------------------------|
Db |---------------------------------|---------------------------------|
Ab |---------------------------------|---------------------------------|
Eb |-0---0---0---0---0---0---0---0---|-0---0---0---0---0---0---0---0---|
   1  &  2  &  3  &  4  &   1  &  2  &  3  &  4  &

- REST FOR REMAINDER OF SONG

🏷Legend:
r = rest
/ = slide up
\ = slide down
^ = 1/4 bend
() = sustained note
h = hammer on
< = volume swell (appears above bar)
. = staccato (appears above bar)
vf = volume fade (appears above bar)
vo = volume out (appears above bar)

Almost there ...

Sign in to get your own page with links to favourite songs and more. You are just one click away...

Login with Facebook Login with Google