Log in

One click and you are in

Login with Facebook Login with Google

Why sign up and log in

Guitar Tabs Explorer
Extreme tabs for Love of my life

Guitar tabs with lyrics

Xref: nevada.edu alt.guitar.1052 alt.guitar:6289


Hi there,

This my transcription to the first part of Love Of My Life as
performed by Gary Cherone and Nuno Bettencourt at the Freddie
Mercury Concert.

I'll post the complete TAB when I've done the hole song.
If anybody finds any mistakes or has the hole song already
figured out , please let me know.

I think those guys from Extreme made a really special version of the
song, allthough Gary's singing rather out of tune on several
occasions.

H = Hammer on
P = Pull off
NH = Natural Harmonics.

            H                           NH hit them hard
E------------------3---2---0------------------------------------------
B------3---2^3-3---------------3----2>--------------------------------
G----2---2-------2---2---2---2---1--2<--------------------------------
D--5---4---5---4---2---0------------2>--------------------------------
A--------------------------4---2----0<--<4>---------------------------
E---------------------------------------<5>---------------------------
                         H P H P
E-------------------7---5^7^5^7^5---10--------------------------------
B--7---8----7---8-----------------8----7----3-3-5-3--3-3-5-3----------
G----7---7----7---7---7------------------7--4--------2----------------
D-10---9---10---9---5---4---------------------------------------------
A---------------------------------7----5----5-------------------------
E----------------------------------------------------2----------------
               End of Intro.  Love of my .....
E--0--2--4--7-----------------------0---------------------------------
B--0--3--5--10--------------------2-----------------------------------
G--1--2--4--7-------------------2-----2--------------2----------------
D--2--4--6--9---------------------------2----------4---6---4----------
A--2--2--7--7-----------------0-----------4-0----4-------4------------
E--0-------------------------------------------2----------------------
               H
E-------2-----------------------------------2-------------------------
B-----3---3---3^2----------3---5---5--2-------2----------3------------
G---4-------4-----4--------4---4---4--2---2-----2------2---2----------
D-----------------------------------------2----------0----------------
A-2-----------------------------------0---4--------5------------------
E--------------------0---2---4---2------0-----------------------------

E--------------------------------------------------------------2------
B---3-3-3---2-2-------------------3-----3---5-5--------------3--------
G---4-4-4---2-2------4---------2--4-2-----4-4-4--------2---2----------
D------------------5---5---0-4--------------2--------0---0------------
A-2----------------------5------------4-2---2------0------------------
E---------2------3----------------3-2-2-----0-------------------------

Interlude :
E-7---5---3-5-2------------------------0--2--4--7-----
B---------------3---3-3-5-3--3-3-5-3---0--3--5--10----
G---7---7-----------4--------2---------1--2--4--7-----
D-5---4---2---0------------------------2--4--6--9-----
A-------------------5------------------2--2--7--7-----
E----------------------------2---------0--------------

I hope it is accurate because it is sometimes very hard to hear what
Nuno is playing. If heard this performance is the B-side of the
Song For Love single. Has anyone got it ? Are the vocals better or
is it still bad.

Please let me know !

Martijn. (email: mwelie@cs.vu.nl)

Other versions of Love Of My Life

Love of my lifeChords

Almost there ...

Sign in to get your own page with links to favourite songs and more. You are just one click away...

Login with Facebook Login with Google