Log in

One click and you are in

Login with Facebook Login with Google

Why sign up and log in

Guitar Tabs Explorer
The Exploited bass tabs for War

Bass tabs

Tuning: Standard (E A D G)


Intro:
(only drums)
Verse:

G|-------------------------------|
D|---------------2---------5-----|
A|---------------------------5-7-|
E|-0-0-0-0-0-0-0---0-0-0-0-------|


Chorus:

G|----------------|
D|----------------|
A|-3----2-------5-|
E|----------------|

G|-------------------------------|
D|---------------2---------5-----|
A|---------------------------5-7-|
E|-0-0-0-0-0-0-0---0-0-0-0-------|

G|----------------|
D|----------------|
A|-3----2-------5-|
E|----------------|


Verse:

G|-------------------------------|
D|---------------2---------5-----|
A|---------------------------5-7-|
E|-0-0-0-0-0-0-0---0-0-0-0-------|

Chorus:

G|----------------|
D|----------------|
A|-3----2-------5-|
E|----------------|

G|-------------------------------|
D|---------------2---------5-----|
A|---------------------------5-7-|
E|-0-0-0-0-0-0-0---0-0-0-0-------|

G|----------------|
D|----------------|
A|-3----2-------5-|
E|----------------|


Verse:

G|-------------------------------|
D|---------------2---------5-----|
A|---------------------------5-7-|
E|-0-0-0-0-0-0-0---0-0-0-0-------|


Chorus:

G|----------------|
D|----------------|
A|-3----2-------5-|
E|----------------|

G|-------------------------------|
D|---------------2---------5-----|
A|---------------------------5-7-|
E|-0-0-0-0-0-0-0---0-0-0-0-------|

G|----------------|
D|----------------|
A|-3----2-------5-|
E|----------------|


Verse:

G|-------------------------------|
D|---------------2---------5-----|
A|---------------------------5-7-|
E|-0-0-0-0-0-0-0---0-0-0-0-------|


Outro:

G|-----------------|
D|---------------2-|
A|-----------------| At the very end the whip sound and drums are the ending actually
E|-0-0-0-0-0-0-0---| but keep playing this till the guitar,vocals fade out with bass.

Almost there ...

Sign in to get your own page with links to favourite songs and more. You are just one click away...

Login with Facebook Login with Google