Log in

One click and you are in

Login with Facebook Login with Google

Why sign up and log in

Guitar Tabs Explorer
The Exploited bass tabs for Ripper

Bass tabs

G|----------------------------|----------------------------|
D|----------------------------|----------------------------|
A|----------------------------|--3-----3--3-----3--3--3----|
E|--5-----5--5-----5--5--5----|----------------------------|
G|----------------------------|----------------------------|
D|----------------------------|----------------------------|
A|--2-----2--2----------------|----------------------------|
E|--------------3-----3--3----|--5-----5--5-----5--5--5----|


G|----------------------------|----------------------------|
D|----------------------------|----------------------------|
A|----------------------------|--3-----3--3-----3--3--3----|
E|--5-----5--5-----5--5--5----|----------------------------|


G|----------------------------|----------------------------|
D|----------------------------|----------------------------|
A|--2-----2--2----------------|----------------------------|
E|--------------3-----3--3----|--5-----5--5-----5--5--5----|


G|----------------------------|----------------------------|
D|----------------------------|----------------------------|
A|----------------------------|--3-----3--3-----3--3--3----|
E|--5-----5--5-----5--5--5----|----------------------------|


G|----------------------------|----------------------------|
D|----------------------------|----------------------------|
A|--2-----2--2----------------|----------------------------|
E|--------------3-----3--3----|--5-----5--5-----5--5--5----|

G|----------------------------|----------------------------|
D|----------------------------|----------------------------|
A|----------------------------|--3-----3--3-----3--3--3----|
E|--5-----5--5-----5--5--5----|----------------------------|


G|----------------------------|----------------------------|
D|----------------------------|----------------------------|
A|--2-----2--2----------------|----------------------------|
E|--------------3-----3--3----|--5-----5--5-----5--5--5----|


G|----------------------------|----------------------------|
D|----------------------------|----------------------------|
A|----------------------------|--5-----5--5-----5--5--5----|
E|--3-----3--------3--3--3----|----------------------------|


G|----------------------------|----------------------------|
D|----------------------------|----------------------------|
A|--2-----2--2-----2--2--2----|--2-----2--2-----2--2--2----|
E|----------------------------|----------------------------|


G|----------------------------|----------------------------|
D|----------------------------|----------------------------|
A|----------------------------|--5-----5--5-----5--5--5----|
E|--3-----3--3-----3--3--3----|----------------------------|


G|----------------------------|----------------------------|
D|----------------------------|----------------------------|
A|--2-----2--2-----2--2--2----|--2-----2--2-----2--2--2----|
E|----------------------------|----------------------------|


G|----------------------------|----------------------------|
D|----------------------------|----------------------------|
A|----------------------------|--3-----3--3-----3--3--3----|
E|--5-----5--5-----5--5--5----|----------------------------|


G|----------------------------|----------------------------|
D|----------------------------|----------------------------|
A|--2-----2--2----------------|----------------------------|
E|--------------3-----3--3----|--5-----5--5-----5--5--5----|


G|----------------------------|----------------------------|
D|----------------------------|----------------------------|
A|----------------------------|--3-----3--3-----3--3--3----|
E|--5-----5--5-----5--5--5----|----------------------------|


G|----------------------------|----------------------------|
D|----------------------------|----------------------------|
A|--2-----2--2----------------|----------------------------|
E|--------------3-----3--3----|--5-----5--5-----5--5--5----|


G|----------------------------|----------------------------|
D|----------------------------|----------------------------|
A|----------------------------|--3-----3--3-----3--3--3----|
E|--5-----5--5-----5--5--5----|----------------------------|


G|----------------------------|----------------------------|
D|----------------------------|----------------------------|
A|--2-----2--2----------------|----------------------------|
E|--------------3-----3--3----|--5-----5--5-----5--5--5----|


G|----------------------------|----------------------------|
D|----------------------------|----------------------------|
A|----------------------------|--3-----3--3-----3--3--3----|
E|--5-----5--5-----5--5--5----|----------------------------|


G|----------------------------|----------------------------|
D|----------------------------|----------------------------|
A|--2-----2--2----------------|----------------------------|
E|--------------3-----3--3----|--5-----5--5-----5--5--5----|


G|----------------------------|----------------------------|
D|----------------------------|----------------------------|
A|----------------------------|--5-----5--5-----5--5--5----|
E|--3-----3--3-----3--3--3----|----------------------------|


G|----------------------------|----------------------------|
D|----------------------------|----------------------------|
A|--2-----2--2-----2--2--2----|--2-----2--2-----2--2--2----|
E|----------------------------|----------------------------|


G|----------------------------|----------------------------|
D|----------------------------|----------------------------|
A|----------------------------|--5-----5--5-----5--5--5----|
E|--3-----3--3-----3--3--3----|----------------------------|


G|----------------------------|----------------------------|
D|----------------------------|----------------------------|
A|--2-----2--2-----2--2--2----|--2-----2--2-----2--2--2----|
E|----------------------------|----------------------------|


G|----------------------------|----------------------------|
D|----------------------------|----------------------------|
A|----------------------------|--3-----3--3-----3--3--3----|
E|--5-----5--5-----5--5--5----|----------------------------|


G|----------------------------|----------------------------|
D|----------------------------|----------------------------|
A|--2-----2--2----------------|----------------------------|
E|--------------3-----3--3----|--5-----5--5-----5--5--5----|


G|----------------------------|----------------------------|
D|----------------------------|----------------------------|
A|----------------------------|--3-----3--3-----3--3--3----|
E|--5-----5--5-----5--5--5----|----------------------------|


G|----------------------------|----------------------------|
D|----------------------------|----------------------------|
A|--2-----2--2----------------|----------------------------|
E|--------------3-----3--3----|--5-----5--5-----5--5--5----|


G|----------------------------|----------------------------|
D|----------------------------|----------------------------|
A|----------------------------|--3-----3--3-----3--3--3----|
E|--5-----5--5-----5--5--5----|----------------------------|


G|----------------------------|----------------------------|
D|----------------------------|----------------------------|
A|--2-----2--2----------------|----------------------------|
E|--------------3-----3--3----|--5-----5--5-----5--5--5----|


G|----------------------------|----------------------------|
D|----------------------------|----------------------------|
A|----------------------------|--3-----3--3-----3--3--3----|
E|--5-----5--5-----5--5--5----|----------------------------|


G|----------------------------|----------------------------|
D|----------------------------|----------------------------|
A|--2-----2--2----------------|----------------------------|
E|--------------3-----3--3----|--5-----5--5-----5--5--5----|


G|----------------------------|----------------------------|
D|----------------------------|----------------------------|
A|----------------------------|--5-----5--5-----5--5--5----|
E|--3-----3--3-----3--3--3----|----------------------------|


G|----------------------------|----------------------------|
D|----------------------------|----------------------------|
A|--2-----2--2-----2--2--2----|--2-----2--2-----2--2--2----|
E|----------------------------|----------------------------|


G|----------------------------|----------------------------|
D|----------------------------|----------------------------|
A|----------------------------|--5-----5--5-----5--5--5----|
E|--3-----3--3-----3--3--3----|----------------------------|


G|----------------------------|----------------------------|
D|----------------------------|----------------------------|
A|--2-----2--2-----2--2--2----|--2-----2--2-----2--2--2----|
E|----------------------------|----------------------------|


G|----------------------------|----------------------------|
D|----------------------------|----------------------------|
A|----------------------------|--3-----3--3-----3--3--3----|
E|--5-----5--5-----5--5--5----|----------------------------|


G|----------------------------|----------------------------|
D|----------------------------|----------------------------|
A|--2-----2--2----------------|----------------------------|
E|--------------3-----3--3----|--5-----5--5-----5--5--5----|


G|----------------------------|----------------------------|
D|----------------------------|----------------------------|
A|----------------------------|--3-----3--3-----3--3--3----|
E|--5-----5--5-----5--5--5----|----------------------------|


G|----------------------------|-------|
D|----------------------------|-------|
A|--2-----2--2----------------|-------|

Almost there ...

Sign in to get your own page with links to favourite songs and more. You are just one click away...

Login with Facebook Login with Google