Log in

One click and you are in

Login with Facebook Login with Google

Why sign up and log in

Guitar Tabs Explorer
The Exploited bass tabs for Never sellout

Bass tabs

THE EXPLOITED - NEVER SELLOUT
Tabbed by: Rottney (reconssuck)
E-mail: reconssuck@hotmail.de

Album: Fuck The System (2002)



[Intro] (listen closely and follow drums for correct rhythm)

G|--------|--------------|--------------------|
D|--------|--------------|--------------------|
A|-0------|-0----0-0-0-0-|-0--0-0-0-0-0-0-0-0-|
E|--------|--------------|--------------------|


[Verse] x8

G|---------|---------|-------|---------|
D|---------|---------|-------|---------|
A|---------|-3-3-3-3-|-------|-1-1-1-1-|
E|-5-5-5-5-|---------|-3-3-3-|---------|


[Chorus] x2
              (alternatively play 7 on D here)
G|-----------|-------------|-----------------|
D|-----------|-------8-8-8-|-----------------|
A|-5-5-5-5-5-|-8-8-8-------|-----------------|
E|-----------|-------------|-5-5-5-5-5-5-5-5-|


[Verse] x8

G|---------|---------|-------|---------|
D|---------|---------|-------|---------|
A|---------|-3-3-3-3-|-------|-1-1-1-1-|
E|-5-5-5-5-|---------|-3-3-3-|---------|


[Chorus] x2

G|-----------|-------------|-----------------|
D|-----------|-------8-8-8-|-----------------|
A|-5-5-5-5-5-|-8-8-8-------|-----------------|
E|-----------|-------------|-5-5-5-5-5-5-5-5-|


[Bridge] x8 (bass and drums only)

G|---------|---------|-------|---------|
D|---------|---------|-------|---------|
A|---------|-3-3-3-3-|-------|-1-1-1-1-|
E|-5-5-5-5-|---------|-3-3-3-|---------|


[Verse] x4

G|---------|---------|-------|---------|
D|---------|---------|-------|---------|
A|---------|-3-3-3-3-|-------|-1-1-1-1-|
E|-5-5-5-5-|---------|-3-3-3-|---------|


[Chorus] x2

G|-----------|-------------|-----------------|
D|-----------|-------8-8-8-|-----------------|
A|-5-5-5-5-5-|-8-8-8-------|-----------------|
E|-----------|-------------|-5-5-5-5-5-5-5-5-|


[Verse] x8

G|---------|---------|-------|---------|
D|---------|---------|-------|---------|
A|---------|-3-3-3-3-|-------|-1-1-1-1-|
E|-5-5-5-5-|---------|-3-3-3-|---------|



[Chorus] x2

G|-----------|-------------|-----------------|
D|-----------|-------8-8-8-|-----------------|
A|-5-5-5-5-5-|-8-8-8-------|-----------------|
E|-----------|-------------|-5-5-5-5-5-5-5-5-|



[Verse] x4

G|---------|---------|-------|---------|
D|---------|---------|-------|---------|
A|---------|-3-3-3-3-|-------|-1-1-1-1-|
E|-5-5-5-5-|---------|-3-3-3-|---------|


That's all

Almost there ...

Sign in to get your own page with links to favourite songs and more. You are just one click away...

Login with Facebook Login with Google