Log in

One click and you are in

Login with Facebook Login with Google

Why sign up and log in

Guitar Tabs Explorer
The Exploited chords for Jimmy boyle

Guitar chords

Here is Jimmy Boyle from Troops of tomorrow by The Exploited
Sorry, the tabs are upsidedown!!!

For this song, it is very important to follow the Up and Down pattern.
So for all the chords I'll show the approximate way to play it. If there is
mistakes you can
Still play it your own way.
A chord diagramD MajorD for down, U For up
Chorus:
   A chord diagramA5A5				  A chord diagramG#5G#5
   A chord diagramD MajorD       U A chord diagramD MajorD U A chord diagramD MajorD      U A chord diagramD MajorD U      A chord diagramD MajorD
e-----|-------------|------------------------
B-----|-------------|------------------------
G-----|-------------|------------------------
D--7--|----7-7-7-7--|---7-7-7------6---------
A--7--|----7-7-7-7--|---7-7-7------6---------
E--5--|----5-5-5-5--|---5-5-5------4---------(repeat as needed)
      --------------x2


2nd part:
   A chord diagramA#A#
   U   U    A chord diagramD MajorD U A chord diagramD MajorD U U     A chord diagramD MajorD U A chord diagramD MajorD
e--------|-------------|-----------------------------
D--8---8-|--8-8-8-8-8--|--8-8-8----------------------
B--------|-------------|-----------2--5 or 4---------
G--------|-------------|----------------------4--3---
A--8---8-|--8-8-8-8-8--|--8-8-8----------------------
E--6---6-|--6-6-6-6-6--|--6-6-6----------------------(repeat as needed)
	 --------------x2


Questions, corrections, comments? E-mail them to :
Olivier258@hotmail.com

Almost there ...

Sign in to get your own page with links to favourite songs and more. You are just one click away...

Login with Facebook Login with Google