Log in

One click and you are in

Login with Facebook Login with Google

Why sign up and log in

Guitar Tabs Explorer
The Exploited bass tabs for Jesus is dead

Bass tabs

Tuning: Standard (E A D G)

1. Drug Sqaud Man

Intro & Verses & Solo & Outro:

G|-------------------------------------|
D|-------------------------------------|
A|-----7------7------7--10--10--10-----|
E|-0-0----0-0----0-0-------------------|
Chorus:

G|--------------------------|
D|--------------------------|
A|--------0-0-0-0-3-3-3-3---| x4
E|-0-5-4-3------------------|


2. Privacy Invasion

Intro:
G|--------------------------|
D|--------------------------|
A|-----------------3--------| x2
E|-5-5-5-5-1-1-1-1---1------|


Verse & Solo:

G|--------------------------|
D|--------------------------|
A|--------------------------|
E|-5-5-5-5-1-1-1-1-3-1------|

Chorus:

G|--------------------------|
D|--------------------------|
A|--------------------------|
E|-5--6--8--10--------------|


3. Jesus Is Dead

Intro & Verse & Solo:
G|-----------------------------|
D|-----------------------------|
A|-----------------------------| Play this fast
E|-5-5-6-5-5-8-5-5-6-5-5-8-3-3-|


Chorus:
G|--------------------------|
D|--------------------------|
A|--------------------------|
E|-5--6--8--10--------------|

4. Politicians

Intro:
G|-----------------------------|
D|-----------------------------|
A|-----------------------------| Play each time drums hit snare at beginning
E|-7---7---7---7---------------|


Verse & Solo:
G|-----------------------------|
D|-----------------------------|
A|-----------------------------|
E|-7-7-7-7-7-7-5-7-------------|


Chorus & Instrumental Chorus:
G|--------------------------|
D|--------------------------|
A|--------------------------|
E|-3---5----7---------------|

Almost there ...

Sign in to get your own page with links to favourite songs and more. You are just one click away...

Login with Facebook Login with Google