Log in

One click and you are in

Login with Facebook Login with Google

Why sign up and log in

Guitar Tabs Explorer
The Exploited bass tabs for Free flight

Bass tabs

THE EXPLOITED - FREE FLIGHT

Album: Punks Not Dead (1981)

Main Riff: x14

G|-----------|-----------|-----------|---------|
D|-----------|-----------|-----------|---------|
A|-----------|-----------|-----------|---------|
E|-0-0-0-0-0-|-0-0-0-0-0-|-0-0-0-0-0-|-2--3----|


Verse: x12 (the 5: is occasionally played in the riff)

G|---------------------|------------|
D|---------------------|------------|
A|-5-7-7-7-5:-7-7-7-7-|------------|
E|---------------------|-2--3--5----|


Chorus: x3

G|---------|---------|---------|-------------|
D|---------|---------|---------|-------------|
A|---7-----|---5-----|---3-----|-------------|
E|-7---7-7-|-5---5-5-|-3---3-3-|-2--0--2-----|



Verse: x8

G|---------------------|------------|
D|---------------------|------------|
A|-5-7-7-7-5:-7-7-7-7-|------------|
E|---------------------|-2--3--5----|


Chorus: x3

G|---------|---------|---------|-------------|
D|---------|---------|---------|-------------|
A|---7-----|---5-----|---3-----|-------------|
E|-7---7-7-|-5---5-5-|-3---3-3-|-2--0--2-----|



Verse: x8

G|---------------------|------------|
D|---------------------|------------|
A|-5-7-7-7-5:-7-7-7-7-|------------|
E|---------------------|-2--3--5----|



Chorus: x3

G|---------|---------|---------|-------------|
D|---------|---------|---------|-------------|
A|---7-----|---5-----|---3-----|-------------|
E|-7---7-7-|-5---5-5-|-3---3-3-|-2--0--2-----|



Main Riff: x12

G|-----------|-----------|-----------|---------|
D|-----------|-----------|-----------|---------|
A|-----------|-----------|-----------|---------|
E|-0-0-0-0-0-|-0-0-0-0-0-|-0-0-0-0-0-|-2--3----|


End:


G|-------|-----|
D|-------|-----|
A|-------|-----|
E|-0-----|-0---|


That's all

Almost there ...

Sign in to get your own page with links to favourite songs and more. You are just one click away...

Login with Facebook Login with Google