Log in

One click and you are in

Login with Facebook Login with Google

Why sign up and log in

Guitar Tabs Explorer
The Exploited bass tabs for Dole q

Bass tabs

THE EXPLOITED - DOLE Q

Album: Punks Not Dead (1981)


Main Riff: x20

G|---------|---------|
D|---------|---------|
A|-7-7-7-7-|-3-3-5-5-|
E|---------|---------|


Chorus:


G|-----------------|-----------------|-------------------------|-------------|
D|-----------------|-----------------|-------------------------|-7-5---------|
A|-----------------|-2-2-2-2-2-2-2-2-|-5-5-5-5-5-5-5-5-5-5-5-5-|-----7-5-----|
E|-3-3-3-3-3-3-3-3-|-----------------|-------------------------|-------------|

G|-----------------|-----------------|-------------------------|
D|-----------------|-----------------|-------------------------|
A|-----------------|-2-2-2-2-2-2-2-2-|-5-5-5-5-5-5-5-5-5-5-5-5-|
E|-3-3-3-3-3-3-3-3-|-----------------|-------------------------|



Main Riff: x16

G|---------|---------|
D|---------|---------|
A|-7-7-7-7-|-3-3-5-5-|
E|---------|---------|


Chorus:

G|-----------------|-----------------|-------------------------|-------------|
D|-----------------|-----------------|-------------------------|-7-5---------|
A|-----------------|-2-2-2-2-2-2-2-2-|-5-5-5-5-5-5-5-5-5-5-5-5-|-----7-5-----|
E|-3-3-3-3-3-3-3-3-|-----------------|-------------------------|-------------|


G|-----------------|-----------------|-------------------------|
D|-----------------|-----------------|-------------------------|
A|-----------------|-2-2-2-2-2-2-2-2-|-5-5-5-5-5-5-5-5-5-5-5-5-|
E|-3-3-3-3-3-3-3-3-|-----------------|-------------------------|



Main Riff: x14

G|---------|---------|
D|---------|---------|
A|-7-7-7-7-|-3-3-5-5-|
E|---------|---------|

Almost there ...

Sign in to get your own page with links to favourite songs and more. You are just one click away...

Login with Facebook Login with Google