Log in

One click and you are in

Login with Facebook Login with Google

Why sign up and log in

Guitar Tabs Explorer
The Exploited bass tabs for Daily news

Bass tabs

THE EXPLOITED - DAILY NEWS

Tabbed by: Rottney (reconssuck)
E-mail: reconssuck@hotmail.de

Album: Troops Of Tommorow (1982)


[Verse] x14 (bass starts after guitar plays riff twice)

G|-------------|------------------|
D|-------------|------------------|
A|-----7-----7-|-----7--10-9-9----|
E|-0-0---0-0---|-0-0--------------|


[Chorus] x2

               (you can also play an open E here)
G|-----------|--------------|-------------|-------------------|
D|-----------|--------------|-------------|-------------------|
A|-----------|-------5-5-5--|-7-7-7-7-7-7-|-7-7-7-7-7-7-7-----|
E|-7-7-7--5--|-3-3-3--------|-------------|-------------------|



[Verse] x12

G|-------------|------------------|
D|-------------|------------------|
A|-----7-----7-|-----7--10-9-9----|
E|-0-0---0-0---|-0-0--------------|



[Chorus] x2


G|-----------|--------------|-------------|-------------------|
D|-----------|--------------|-------------|-------------------|
A|-----------|-------5-5-5--|-7-7-7-7-7-7-|-7-7-7-7-7-7-7-----|
E|-7-7-7--5--|-3-3-3--------|-------------|-------------------|



[Verse] x12

G|-------------|------------------|
D|-------------|------------------|
A|-----7-----7-|-----7--10-9-9----|
E|-0-0---0-0---|-0-0--------------|


[Chorus] x2


G|-----------|--------------|-------------|-------------------|
D|-----------|--------------|-------------|-------------------|
A|-----------|-------5-5-5--|-7-7-7-7-7-7-|-7-7-7-7-7-7-7-----|
E|-7-7-7--5--|-3-3-3--------|-------------|-------------------|



[Verse] x12

G|-------------|------------------|
D|-------------|------------------|
A|-----7-----7-|-----7--10-9-9----|
E|-0-0---0-0---|-0-0--------------|


[Chorus] x2


G|-----------|--------------|-------------|-------------------|
D|-----------|--------------|-------------|-------------------|
A|-----------|-------5-5-5--|-7-7-7-7-7-7-|-7-7-7-7-7-7-7-----|
E|-7-7-7--5--|-3-3-3--------|-------------|-------------------|


[Verse] x4

G|-------------|------------------|
D|-------------|------------------|
A|-----7-----7-|-----7--10-9-9----|
E|-0-0---0-0---|-0-0--------------|


[End]


G|----------|
D|----------|
A|----------|
E|-0--------|


That's all

Almost there ...

Sign in to get your own page with links to favourite songs and more. You are just one click away...

Login with Facebook Login with Google