Log in

One click and you are in

Login with Facebook Login with Google

Why sign up and log in

Guitar Tabs Explorer
The Exploited bass tabs for Computers dont blunder

Computers Don't Blunder bass tab by The Exploited

The Exploited bass tabs for Computers dont blunder

Bass tabs

Tuning: Standard (E A D G)

1. Computers Don't Blunder

Intro:

G|---------------------------------------------------------------------------|
D|---------------------------------------------------------------------------|
A|---------------------------------------------------------------------------| Play every time guitar plays
E|-0--------------------------0------------0---------------------------------| long note.
Verse:

G|------------------|------------------|
D|------------------|------------------|
A|------------------|------------------| Play along with guitar
E|-0-0-0-0-2-3-3-3-3|0-0-0-0-2-3-3-3-3-|


Chorus:

G|---------------------------------------------------------------------------|
D|---------------------------------------------------------------------------|
A|-3-3-3-3-----------------2-2-2-0-------------------------------------------| x2 times
E|---------5-5-5-5-3-3-3-3---------------------------------------------------|


Verse:

G|------------------|------------------|
D|------------------|------------------|
A|------------------|------------------| Play along with guitar
E|-0-0-0-0-2-3-3-3-3|0-0-0-0-2-3-3-3-3-|

Chorus:

G|---------------------------------------------------------------------------|
D|---------------------------------------------------------------------------|
A|-3-3-3-3-----------------2-2-2-0-------------------------------------------| x2 times
E|---------5-5-5-5-3-3-3-3---------------------------------------------------|


Outro:

G|---------------------------------------------------------------------------|
D|---------------------------------------------------------------------------|
A|---------------------------------------------------------------------------|
E|-0-------------------------------------------------------------------------|

2. Addiction

Verse:

G|--------|-------|-------|----------|
D|--------|-------|-------|----------|
A|--------|-------|-------|0-2-0-----| Play along with guitar
E|-0-2-2-2|0-2-2-2|0-2-2-2|------3-0-|


Chorus:

G|---------------------------------|
D|---------------------------------|
A|-1-1-1-1-2-2-2-2-3-3-3-3-4-4-4-4-| 1 time,PLAY NOTES FAST
E|---------------------------------|


Verse:

G|--------|-------|-------|----------|
D|--------|-------|-------|----------|
A|--------|-------|-------|0-2-0-----| Play along with guitar
E|-0-2-2-2|0-2-2-2|0-2-2-2|------3-0-|


Chorus:

G|---------------------------------|
D|---------------------------------|
A|-1-1-1-1-2-2-2-2-3-3-3-3-4-4-4-4-| 1 time,PLAY NOTES FAST
E|---------------------------------|

Almost there ...

Sign in to get your own page with links to favourite songs and more. You are just one click away...

Login with Facebook Login with Google