Log in

One click and you are in

Login with Facebook Login with Google

Why sign up and log in

Guitar Tabs Explorer
The Exploited bass tabs for Class war

Bass tabs

THE EXPLOITED - CLASS WAR

Tabbed by: Rottney (reconssuck)
E-mail: reconssuck@hotmail.de

Album: Punks Not Dead (1981)


[Intro]

G|-----------|
D|-----------|
A|-----------|
E|-1--1--1---|


[Verse] x4

G|-----------------|---------------|---------------|-------------|
D|-----------------|---------------|---------------|-------------|
A|-5-5-5-5-5-5-5-5-|-5-5-5-5-5-5-5-|---------------|-------------|
E|-----------------|---------------|-3-3-3-3-3-3-3-|-1-1-1-1-1-1-|


[Chorus] x3

G|---------------|------------|
D|---------------|------------|
A|-7-7-7-7-7-7-7-|-7--5-------|
E|---------------|-------5----|


[Chorus End]

G|---------------|--------------|
D|---------------|--------------|
A|-7-7-7-7-7-7-7-|-7--8--9--10--|
E|---------------|--------------|


[Verse] x4

G|-----------------|---------------|---------------|-------------|
D|-----------------|---------------|---------------|-------------|
A|-5-5-5-5-5-5-5-5-|-5-5-5-5-5-5-5-|---------------|-------------|
E|-----------------|---------------|-3-3-3-3-3-3-3-|-1-1-1-1-1-1-|



[Chorus] x3

G|---------------|------------|
D|---------------|------------|
A|-7-7-7-7-7-7-7-|-7--5-------|
E|---------------|-------5----|


[Chorus End]

G|---------------|--------------|
D|---------------|--------------|
A|-7-7-7-7-7-7-7-|-7--8--9--10--|
E|---------------|--------------|


[Bridge]

(follow the drums for correct rhythm)

G|--------|----------|---------|
D|--------|----------|---------|
A|-5------|--------5-|---------|
E|--------|--1-1-1---|--1-1-1--|


[Verse] x4

G|-----------------|---------------|---------------|-------------|
D|-----------------|---------------|---------------|-------------|
A|-5-5-5-5-5-5-5-5-|-5-5-5-5-5-5-5-|---------------|-------------|
E|-----------------|---------------|-3-3-3-3-3-3-3-|-1-1-1-1-1-1-|


[Chorus] x3

G|---------------|------------|
D|---------------|------------|
A|-7-7-7-7-7-7-7-|-7--5-------|
E|---------------|-------5----|


[Chorus End]

G|---------------|--------------|
D|---------------|--------------|
A|-7-7-7-7-7-7-7-|-7--8--9--10--|
E|---------------|--------------|


[End]

G|--------|
D|--------|
A|--------|
E|-5------|

Almost there ...

Sign in to get your own page with links to favourite songs and more. You are just one click away...

Login with Facebook Login with Google