Log in

One click and you are in

Login with Facebook Login with Google

Why sign up and log in

Guitar Tabs Explorer
The Exploited bass tabs for Chaos is my life

Bass tabs

THE EXPLOITED - CHAOS IS MY LIFE

Tabbed by: Rottney (reconssuck)
E-mail: reconssuck@hotmail.de

Album: Fuck The System (1982)



[Intro]

G|---------|--------|
D|---------|--------|
A|---------|--------|
E|-0--0----|-0------|


[Verse] x8

G|---------|---------|---------|---------|
D|---------|---------|---------|---------|
A|---------|---------|---------|---------|
E|-0-0-0-3-|-0-0-0-3-|-0-0-0-3-|-5-5-5-5-|


[Chorus] x3

G|--------|---------------|--------|--------------------|
D|--------|---------------|--------|--------------------|
A|-3------|---------------|-3------|--------------------|
E|-----5--|-0-0-0-0-0-0-0-|-----5--|-0-0-0-0-0-0-0-0----|

[Chorus End]

G|--------|---------------|
D|--------|---------------|
A|-3------|---------------|
E|-----5--|-7-7-7-7-7-7-7-|



[Verse] x8

G|---------|---------|---------|---------|
D|---------|---------|---------|---------|
A|---------|---------|---------|---------|
E|-0-0-0-3-|-0-0-0-3-|-0-0-0-3-|-5-5-5-5-|



[Chorus] x3

G|--------|---------------|--------|--------------------|
D|--------|---------------|--------|--------------------|
A|-3------|---------------|-3------|--------------------|
E|-----5--|-0-0-0-0-0-0-0-|-----5--|-0-0-0-0-0-0-0-0----|


[Chorus End]

G|--------|---------------|
D|--------|---------------|
A|-3------|---------------|
E|-----5--|-7-7-7-7-7-7-7-|



[Verse] x8

G|---------|---------|---------|---------|
D|---------|---------|---------|---------|
A|---------|---------|---------|---------|
E|-0-0-0-3-|-0-0-0-3-|-0-0-0-3-|-5-5-5-5-|



[Chorus] x3

G|--------|---------------|--------|--------------------|
D|--------|---------------|--------|--------------------|
A|-3------|---------------|-3------|--------------------|
E|-----5--|-0-0-0-0-0-0-0-|-----5--|-0-0-0-0-0-0-0-0----|


[Chorus End]

G|--------|---------------|
D|--------|---------------|
A|-3------|---------------|
E|-----5--|-7-7-7-7-7-7-7-|


[Verse] x5

G|---------|---------|---------|---------|
D|---------|---------|---------|---------|
A|---------|---------|---------|---------|
E|-0-0-0-3-|-0-0-0-3-|-0-0-0-3-|-5-5-5-5-|


That's all

Almost there ...

Sign in to get your own page with links to favourite songs and more. You are just one click away...

Login with Facebook Login with Google