Log in

One click and you are in

Login with Facebook Login with Google

Why sign up and log in

Guitar Tabs Explorer
The Exploited bass tabs for Boys in blue

Bass tabs

THE EXPLOITED - BOYS IN BLUE

Tabbed by: Rottney (reconssuck)
E-mail: reconssuck@hotmail.de

Album: The Massacre (1990)




[Main Riff] x12

G|-----------------|---------|---------|
D|-----------------|---------|---------|
A|-----------------|-8-8-8-8-|-6-6-6-6-|
E|-3-3-3-3-3-3-3-3-|---------|---------|


[Chorus] x4

G|-----------------|-----------------|
D|-----------------|-----------------|
A|-3-5-5-5-5-5-5-5-|-3-5-5-5-6-6-6-6-|
E|-----------------|-----------------|


[Main Riff] x12

G|-----------------|---------|---------|
D|-----------------|---------|---------|
A|-----------------|-8-8-8-8-|-6-6-6-6-|
E|-3-3-3-3-3-3-3-3-|---------|---------|


[Chorus] x4

G|-----------------|-----------------|
D|-----------------|-----------------|
A|-3-5-5-5-5-5-5-5-|-3-5-5-5-6-6-6-6-|
E|-----------------|-----------------|


[Main Riff] x12

G|-----------------|---------|---------|
D|-----------------|---------|---------|
A|-----------------|-8-8-8-8-|-6-6-6-6-|
E|-3-3-3-3-3-3-3-3-|---------|---------|


[Chorus] x4

G|-----------------|-----------------|
D|-----------------|-----------------|
A|-3-5-5-5-5-5-5-5-|-3-5-5-5-6-6-6-6-|
E|-----------------|-----------------|



[Main Riff] x20

G|-----------------|---------|---------|
D|-----------------|---------|---------|
A|-----------------|-8-8-8-8-|-6-6-6-6-|
E|-3-3-3-3-3-3-3-3-|---------|---------|


[Chorus] x4

G|-----------------|-----------------|
D|-----------------|-----------------|
A|-3-5-5-5-5-5-5-5-|-3-5-5-5-6-6-6-6-|
E|-----------------|-----------------|


[Main Riff] x3

G|-----------------|---------|---------|
D|-----------------|---------|---------|
A|-----------------|-8-8-8-8-|-6-6-6-6-|
E|-3-3-3-3-3-3-3-3-|---------|---------|


That's all
Enjoy and Rate

Almost there ...

Sign in to get your own page with links to favourite songs and more. You are just one click away...

Login with Facebook Login with Google