Log in

One click and you are in

Login with Facebook Login with Google

Why sign up and log in

Guitar Tabs Explorer
The Exploited bass tabs for Addiction

Bass tabs

THE EXPLOITED - ADDICTION

Tabbed by: Rottney (reconssuck)
E-mail: reconssuck@hotmail.de

Album: Troops Of Tommorow (1982)


[Main Riff] x6

G|-----------------|-----------------|-----------------|--------------|
D|-----------------|-----------------|-----------------|--------------|
A|-----------------|-----------------|-----------------|-2--0---------|
E|-0-2-2-2-2-2-2-2-|-0-2-2-2-2-2-2-2-|-0-2-2-2-2-2-2-2-|------3-------|



[Chorus]

G|-----------------|-----------------|-----------------|-------|
D|-----------------|-----------------|-----------------|-------|
A|-0-0-0-0-0-0-0-0-|-1-1-1-1-1-1-1-1-|-2-2-2-2-2-2-2-2-|-3-----|
E|-----------------|-----------------|-----------------|-------|


[Main Riff] x6

G|-----------------|-----------------|-----------------|--------------|
D|-----------------|-----------------|-----------------|--------------|
A|-----------------|-----------------|-----------------|-2--0---------|
E|-0-2-2-2-2-2-2-2-|-0-2-2-2-2-2-2-2-|-0-2-2-2-2-2-2-2-|------3-------|


[Chorus]

G|-----------------|-----------------|-----------------|-------|
D|-----------------|-----------------|-----------------|-------|
A|-0-0-0-0-0-0-0-0-|-1-1-1-1-1-1-1-1-|-2-2-2-2-2-2-2-2-|-3-----|
E|-----------------|-----------------|-----------------|-------|


[Main Riff] x6

G|-----------------|-----------------|-----------------|--------------|
D|-----------------|-----------------|-----------------|--------------|
A|-----------------|-----------------|-----------------|-2--0---------|
E|-0-2-2-2-2-2-2-2-|-0-2-2-2-2-2-2-2-|-0-2-2-2-2-2-2-2-|------3-------|


[Chorus]

G|-----------------|-----------------|-----------------|-------|
D|-----------------|-----------------|-----------------|-------|
A|-0-0-0-0-0-0-0-0-|-1-1-1-1-1-1-1-1-|-2-2-2-2-2-2-2-2-|-3-----|
E|-----------------|-----------------|-----------------|-------|


[Main Riff] x7

G|-----------------|-----------------|-----------------|--------------|
D|-----------------|-----------------|-----------------|--------------|
A|-----------------|-----------------|-----------------|-2--0---------|
E|-0-2-2-2-2-2-2-2-|-0-2-2-2-2-2-2-2-|-0-2-2-2-2-2-2-2-|------3-------|


[Chorus]

G|-----------------|-----------------|-----------------|-------|
D|-----------------|-----------------|-----------------|-------|
A|-0-0-0-0-0-0-0-0-|-1-1-1-1-1-1-1-1-|-2-2-2-2-2-2-2-2-|-3-----|
E|-----------------|-----------------|-----------------|-------|



That's all

Almost there ...

Sign in to get your own page with links to favourite songs and more. You are just one click away...

Login with Facebook Login with Google