Log in

One click and you are in

Login with Facebook Login with Google

Why sign up and log in

Guitar Tabs Explorer
The Expendables bass tabs for Let loose

Bass tabs

-------------------------------------------------------------------------------
			   LET LOOSE - The Expendables
-------------------------------------------------------------------------------

Tabbed By : Wes Lai
e-mail: Stinger12345@aol.com
Tuning: standard


Verse/guitar solo

G|---------------------------------------------------------------------------|
D|---------------------------------------------------------------------------|
A|----3-5-3---3-5-7--------3x than on 4th------3-5-3---3---------------------|
E|-3--------5---------5----------------------3-------5---5-5-----------------|


Pre Chorus/guitar solo

G|---------------------------------------------------------------------------|
D|------------2-2------------------------------------------------------------|
A|-2-2--5-2-5-------------on 4th x-----3-3--3--5-5-5-------------------------|
E|----------------0-3----------------------3---------------------------------|


Chorus

G|---------------------------------------------------------------------------|
D|------------------------------5----5-5555----------------------------------|
A|------5-3---33p5-5-5---3-3---3-3--3-3--------------------------------------|
E|-3--3------5---------------------------------------------------------------|


Outro (double time)

G|---------------------------------------------------------------------------|
D|---------------------------------------------------------------------------|
A|------------------555555555555555-777777777777777--------------------------|
E|-3333333333333333---------------------------------333333333333333----------|

ⓘ Bass guitar tab for 'Let Loose' by The Expendables, artist.

Almost there ...

Sign in to get your own page with links to favourite songs and more. You are just one click away...

Login with Facebook Login with Google