Log in

One click and you are in

Login with Facebook Login with Google

Why sign up and log in

Guitar Tabs Explorer
The Exies chords for Ugly

Chords

Title: Ugly

The following is the authors redition.


Tuning - A chord diagramDbDb - A chord diagramAbAb - A chord diagramDbDb - A chord diagramGbGb - A chord diagramBb majorBb - A chord diagramEb MajorEb
Intro & Verses: Repeat 5x
Eb--------------------------------------------------
Bb--7-7-7-7--5-5-5-5-5--10-10-10--5-5-5-5-----------
Gb--6-6-6-6--6-6-6-6-6---9--9--9--4-4-4-4-----------
Db--4-4-4-4--4-4-4-4-4---0--0--0--0-0-0-0-----------
Ab--4-4-4-4--4-4-4-4-4---0--0--0--0-0-0-0-----------
Db--4-4-4-4--4-4-4-4-4---0--0--0--0-0-0-0-----------

Play 1x
Eb-----------------------------------------0-0-0-0-0-0--0-0-0---------
Bb--7-7-7-7--5-5-5-5-5--10-10-10--5-5-5-5--X-X-X-X-X-X--X-X-X---------
Gb--6-6-6-6--6-6-6-6-6---9--9--9--4-4-4-4--9-9-9-9-9-9--7-7-7---------
Db--4-4-4-4--4-4-4-4-4---0--0--0--0-0-0-0--9-9-9-9-9-9--7-7-7--X-X-X-X
Ab--4-4-4-4--4-4-4-4-4---0--0--0--0-0-0-0--7-7-7-7-7-7--5-5-5--X-X-X-X
Db--4-4-4-4--4-4-4-4-4---0--0--0--0-0-0-0--X-X-X-X-X-X--X-X-X~W-X-X-X-X


Chorus #1:
Eb------------------------------------------------------------
Bb------------------------------------------------------------
Gb------------------------------------------------------------
Db--4-4--7-7--2-2-2--9-9-9-9-11---4-4--7-7--2-2-2--9-9-9-9-11-
Ab--4-4--7-7--2-2-2--9-9-9-9-11---4-4--7-7--2-2-2--9-9-9-9-11-
Db--4-4--7-7--2-2-2--9-9-9-9-11---4-4--7-7--2-2-2--9-9-9-9-11-

Eb----------------------------------------------------------
Bb----------------------------------------------------------
Gb----------------------------------------------------------
Db--4-4--7-7--2-2-2--9-9-9-9-11--4-4-4-4-7-7-7-7-0-0-0-0-11-
Ab--4-4--7-7--2-2-2--9-9-9-9-11--4-4-4-4-7-7-7-7-0-0-0-0-11-
Db--4-4--7-7--2-2-2--9-9-9-9-11--4-4-4-4-7-7-7-7-0-0-0-0-11-
Verse #2


Chorus #2:
Eb------------------------------------------------------------
Bb------------------------------------------------------------
Gb------------------------------------------------------------
Db--4-4--7-7--2-2-2--9-9-9-9-11---4-4--7-7--2-2-2--9-9-9-9-11-
Ab--4-4--7-7--2-2-2--9-9-9-9-11---4-4--7-7--2-2-2--9-9-9-9-11-
Db--4-4--7-7--2-2-2--9-9-9-9-11---4-4--7-7--2-2-2--9-9-9-9-11-

Eb--------------------------------------------------------------
Bb--------------------------------------------------------------
Gb--------------------------------------------------------------
Db--4-4--7-7--2-2-2--9-9-9-9-11--4-4-4-4-7-7-7-7-2-2-2-2-9-9-9-9
Ab--4-4--7-7--2-2-2--9-9-9-9-11--4-4-4-4-7-7-7-7-2-2-2-2-9-9-9-9
Db--4-4--7-7--2-2-2--9-9-9-9-11--4-4-4-4-7-7-7-7-2-2-2-2-9-9-9-9


Bridge: Play 3x
Eb--------------------------------------
Bb--------------------------------------
Gb--------------------------------------
Db-0-0-0-0-0-0-0-0--9-9-9-9-9-9-9--3----
Ab-0-0-0-0-0-0-0-0--9-9-9-9-9-9-9--3----
Db-0-0-0-0-0-0-0-0--9-9-9-9-9-9-9--3----

Play 1x
Eb-------------------------------
Bb-------------------------------
Gb-------------------------------
Db-0-0-0-0-0-0-0-0--2-2-2-2/11---
Ab-0-0-0-0-0-0-0-0--2-2-2-2/11---
Db-0-0-0-0-0-0-0-0--2-2-2-2/11---
ⓘ Guitar chords for 'Ugly' by The Exies, a rock band formed in 1997 from Los Angeles, California. They retired in 2011

Almost there ...

Sign in to get your own page with links to favourite songs and more. You are just one click away...

Login with Facebook Login with Google