Log in

One click and you are in

Login with Facebook Login with Google

Why sign up and log in

Guitar Tabs Explorer
Evoke The Speechless bass tabs for Cognitive dissonance

Cognitive Dissonance bass tab by Evoke The Speechless

Evoke The Speechless bass tabs for Cognitive dissonance

Bass tabs

Tab by Randon Ladner


[Intro]
G|---------------------------------------------------------------------------|
D|---------------------------------------------------------------------------|
A|---------------------------------------------------------------------------|
D|-0-----0-------------------------------------------------------------------|
B|---------------------------------------------------------------------------|
[Verse]
G|---------------------------------------------------------------------------|
D|---------------------------------------------------------------------------|
A|---------------------------------------------------------------------------|
D|-0-0-0-0-0-0-0-0-0-0-0-0-0-0-0-0-------------------------------------------|
B|---------------------------------------------------------------------------|

G|---------------------------------------------------------------------------|
D|-----------------------------------------------------------5-3-------------|
A|-5-5-5-5-5-5-5-5-5-5-5-5-5-5-5-5-3-3-3-3-3-3-3-3-3-3-3-3-3-----3-----------| (x4)
D|---------------------------------------------------------------------------|
B|---------------------------------------------------------------------------|


[Chorus]
G|---------------------------------------------------------------------------|
D|---------------------------------------------------------------------------|
A|---------------------------------------------------------------------------|
D|-0----0-1------------------------------------------------------------------|
B|---------------------------------------------------------------------------|

G|---------------------------------------------------------------------------|
D|---------------------------------------------------------------------------|
A|---------------------------------------------------------------------------|
D|-1--1-1-1-1-0--0-0-0-0-0-0-0-0-3--3-3-3-3-1--1-1-1-1-1-1-1-1---------------|
B|---------------------------------------------------------------------------|

[Verse]
G|---------------------------------------------------------------------------|
D|---------------------------------------------------------------------------|
A|---------------------------------------------------------------------------|
D|-0-0-0-0-0-0-0-0-0-0-0-0-0-0-0-0-------------------------------------------|
B|---------------------------------------------------------------------------|

G|---------------------------------------------------------------------------|
D|-----------------------------------------------------------5-3-------------|
A|-5-5-5-5-5-5-5-5-5-5-5-5-5-5-5-5-3-3-3-3-3-3-3-3-3-3-3-3-3-----3-----------| (x4)
D|---------------------------------------------------------------------------|
B|---------------------------------------------------------------------------|


[Chorus]
G|---------------------------------------------------------------------------|
D|---------------------------------------------------------------------------|
A|---------------------------------------------------------------------------|
D|-0----0-1------------------------------------------------------------------|
B|---------------------------------------------------------------------------|

G|---------------------------------------------------------------------------|
D|---------------------------------------------------------------------------|
A|---------------------------------------------------------------------------|
D|-1--1-1-1-1-0--0-0-0-0-0-0-0-0-3--3-3-3-3-1--1-1-1-1-1-1-1-1---------------|
B|---------------------------------------------------------------------------|

[Breakdown]
G|---------------------------------------------------------------------------|
D|---------------------------------------------------------------------------|
A|---------------------------------------------------------------------------|
D|---------------------------------------------------------------------------|
B|-3-3-3-3--3-3-3-3--3-3-3-3---3-3-3-3---------------------------------------|

(last line of breakdown let last note ring then this:)
G|---------------------------------------------------------------------------|
D|---------------------------------------------------------------------------|
A|---------------------------------------------------------------------------|
D|-0-1--0----0---------------------------------------------------------------|
B|---------------------------------------------------------------------------|


[Solo section]
G|---------------------------------------------------------------------------|
D|---------------------------------------------------------------------------|
A|---------------------------------------------------------------------------|
D|-0-0-0-0-0-0-0-0-0-0-0-0-0-0-1-1-------------------------------------------| (x4)
B|---------------------------------------------------------------------------|

G|---------------------------------------------------------------------------|
D|---------------------------------------------------------------------------|
A|-5-5-5-5-5-6-6-6-6-5-5-5-5-3-3-3-------------------------------------------|
D|---------------------------------------------------------------------------| (x4)
B|---------------------------------------------------------------------------|

G|---------------------------------------------------------------------------|
D|---------------------------------------------------------------------------|
A|---------------------------------------------------------------------------|
D|---------------------------------------------------------------------------| (x4)
B|-3-3-3-3-3-4-4-4-4-3-3-3-3-1-1-1-------------------------------------------|

G|---------------------------------------------------------------------------|
D|---------------------------------------------------------------------------|
A|-5-5-5-5-5-6-6-6-6-5-5-5-5-3-3-3-------------------------------------------|
D|---------------------------------------------------------------------------|
B|---------------------------------------------------------------------------|

G|---------------------------------------------------------------------------|
D|---------------------------------------------------------------------------|
A|---------------------------------------------------------------------------|
D|-------------------------------------0-1--0--------------------------------|
B|-3-3-3-3--3-3-3-3--3-3-3-3--3-3-3-3----------------------------------------|


[Verse]
G|---------------------------------------------------------------------------|
D|---------------------------------------------------------------------------|
A|---------------------------------------------------------------------------|
D|-0-0-0-0-0-0-0-0-0-0-0-0-0-0-0-0-------------------------------------------|
B|---------------------------------------------------------------------------|

G|---------------------------------------------------------------------------|
D|-----------------------------------------------------------5-3-------------|
A|-5-5-5-5-5-5-5-5-5-5-5-5-5-5-5-5-3-3-3-3-3-3-3-3-3-3-3-3-3-----3-----------| (x4)
D|---------------------------------------------------------------------------|
B|---------------------------------------------------------------------------|


[Chorus]
G|---------------------------------------------------------------------------|
D|---------------------------------------------------------------------------|
A|---------------------------------------------------------------------------|
D|-0----0-1------------------------------------------------------------------|
B|---------------------------------------------------------------------------|

G|---------------------------------------------------------------------------|
D|---------------------------------------------------------------------------|
A|---------------------------------------------------------------------------|
D|-1--1-1-1-1-0--0-0-0-0-0-0-0-0-3--3-3-3-3-1--1-1-1-1-1-1-1-1---------------|
B|---------------------------------------------------------------------------|


[Outro]
G|---------------------------------------------------------------------------|
D|---------------------------------------------------------------------------|
A|---------------------------------------------------------------------------|
D|---------------------------------------------------------------------------|

Almost there ...

Sign in to get your own page with links to favourite songs and more. You are just one click away...

Login with Facebook Login with Google