Log in

One click and you are in

Login with Facebook Login with Google

Why sign up and log in

Guitar Tabs Explorer
Everything Everything bass tabs for Planets

Bass tabs

Tuning: Standard (E A D G)

Tempo is 108.

Bass comes in after 4 bars.
Verse 1:

"To the bigots.."

G|--------|--------|--------|--------|
D|--------|--------|--------|--------|
A|9-------|(9)-----|--------|--------|
E|--------|--------|9---6---|7---4---| x5

Small variations on the F# and B

Play C# instead of the last bar on the fifth time:

G|--------|
D|--------|
A|--------|
E|9-------|


Chorus:

"Can you love me.."

G|--------|--------|--------|---------|
D|--------|--------|--------|---------|
A|/13-----|8-------|9-------|---------|
E|--------|--------|--------|9/---1---| x2

G|----------|---------|---------|---------|
D|----------|------------------|---------|
A|----------|---------|---------|---------|
E|-----6-8-9|6---6-8-9|6---6-8-9|6---6-8-9|

"More than the planets.."

G|--------|---------|
D|--86----|---86----|
A|----8---|--6--8---|
E|-----689|68----689| x2

Verse 2:

"What's beastly.."

G|--------|--------|--------|--------|
D|--------|--------|--------|--------|
A|9-------|(9)-----|--------|--------|
E|--------|--------|9---6---|7---4---| x2


"Can you love me.."

G|--------|--------|--------|---------|
D|--------|--------|--------|---------|
A|/13-----|8-------|9-------|---------|
E|--------|--------|--------|9/---1---| x4

Rest for 4 bars.


Chorus:

"Planets.."

G|----------|---------|---------|---------|
D|----------|------------------|---------|
A|----------|---------|---------|---------|
E|-----6-8-9|6---6-8-9|6---6-8-9|6---6-8-9|

G|--------|---------|
D|--86----|---86----|
A|----8---|--6--8---|
E|-----689|68----689|


Bridge:

G|---------|---------|
D|---86----|---86----|
A|--6--8---|--6--8---|
E|68----689|68----689| x10

G|--------|---------|---------|---------|
D|--86----|---86----|---86----|---86----|
A|----8---|--6--8---|--6--8---|--6--8---|
E|-----689|68----689|68----689|68----689|


Chorus/Outro:

Can you love me..

G|--------|--------|--------|---------|
D|--------|--------|--------|---------|
A|/13-----|8-------|9-------|---------|
E|--------|--------|--------|9/---1---| x2

G|--------|---------|
D|--86----|---86----|
A|----8---|--6--8---|
E|-----689|68----689|

G|---------|---------|
D|---86----|---86----|
A|--6--8---|--6--8---|
E|68----689|68----689| x3


************************************

| (n) Ghost note
| /  Slide up

************************************
ⓘ Bass guitar tab for 'Planets' by Everything Everything, an indie band formed in 2007 from Manchester, England. Everything Everything is known for their good natured rock/pop music.

Almost there ...

Sign in to get your own page with links to favourite songs and more. You are just one click away...

Login with Facebook Login with Google