Log in

One click and you are in

Login with Facebook Login with Google

Why sign up and log in

Guitar Tabs Explorer
Everything Everything bass tabs for It was a monstering

It Was A Monstering bass tab by Everything Everything

Everything Everything bass tabs for It was a monstering

Bass tabs

Tuning: Standard (E A D G)


Intro:
0:00
REST
Verse 1:
0:42
G|------7-------7-------7-------7-----|
D|------------------------------------|
A|----9---9---9---9---9---9---9---9---|
E|--7-------7-------7-------7---------|

0:48
G|------7-------7-------7-------7-----|
D|----4---4---4---4---4---4---4---4---|
A|------------------------------------|
E|--5-------5-------5-------5---------|

0:55
G|------4-------4-------2-------2-----|
D|------------------------------------|
A|----5---5---5---5---5---5---5---5---|
E|--3-------3-------2-------2---------|

1:01
G|------2-------2-------6-------6-7---|
D|------------------------7---7-------|
A|----3---3---3---3---7---------------|
E|--1-------1-------5-------5---------|


Chorus 1:
1:07
G|------------------------------------|
D|------5-------5---------------------|
A|----5---5---5---5---9-7-5---9-7-5---|
E|--6-------6-------7-------7---------|

1:13
G|----------------------4-------4-------9-------9-----|
D|----5-------5---------------------------9-------9---|
A|------7-4-----7-4---5---5---5---5---7-------7-------|
E|--5-------5-------3-------3-------0-------0---------|

Verse 2:
1:23
REST


Chorus 2:
1:48
G|------------------------------------|
D|------5-------5---------------------|
A|----5---5---5---5---9-7-5---9-7-5---|
E|--6-------6-------7-------7---------|

1:55
G|----------------------4-------4-------9-------9-----|
D|----5-------5---------------------------9-------9---|
A|------7-4-----7-4---5---5---5---5---7-------7-------|
E|--5-------5-------3-------3-------0-------0---------|

2:04
G|------------------------------------|
D|------5-------5---------------------|
A|----5---5---5---5---9-7-5---9-7-5---|
E|--6-------6-------7-------7---------|

2:10
G|----------------------4-------4-------9-------9-----|
D|----5-------5---------------------------9-------9---|
A|------7-4-----7-4---5---5---5---5---7-------7-------|
E|--5-------5-------3-------3-------0-------0---------|


Bridge Intro:
2:20
G|-----------------------------------|
D|-----------------------------------|
A|------------------5---7---8---10---|
E|--3---5---6---8--------------------|


Bridge:
2:26
G|-----------------------------------------------------------------------------------|
D|-----------------------------------------------------------------------------------|
A|--5---5-5-8p7---------8p7------------------------7---7-7-5h7---7-7-5h7---7-7-8p7---|
E|--------------8---8-8-----6---6-8p6-5-1---1-1-1/-----------------------------------|

2:37
G|-----------------------------------------------------------------------------------|
D|-----------------------------------------------------------------------------------|
A|--5---5-5-8p7---------8p7------------------------7---7-7-5h7---7-7-5h7---7-7-8p7---|
E|--------------8---8-8-----6---6-8p6-5-1---1-1-1/-----------------------------------|

2:48
G|-----------------------------------------------------------------------------------|
D|-----------------------------------------------------------------------------------|
A|--5---5-5-8p7---------8p7------------------------7---7-7-5h7---7-7-5h7---7-7-8p7---|
E|--------------8---8-8-----6---6-8p6-5-1---1-1-1/-----------------------------------|

2:59
G|-----------------------------------------------------------------------------------|
D|-----------------------------------------------------------------------------------|
A|--5---5-5-8p7---------8p7------------------------7---7-7-5h7---7-7-5h7---7-7-8p7---|
E|--------------8---8-8-----6---6-8p6-5-1---1-1-1/-----------------------------------|

3:10
G|-----------------------------------------------------------------------------------|
D|-----------------------------------------------------------------------------------|
A|--5---5-5-8p7---------8p7------------------------7---7-7-5h7---7-7-5h7---7-7-8p7---|
E|--------------8---8-8-----6---6-8p6-5-1---1-1-1/-----------------------------------|

3:21
G|-----------------------------------------------------------------------------------|
D|-----------------------------------------------------------------------------------|
A|--5---5-5-8p7---------8p7------------------------7---7-7-5h7---7-7-5h7---7-7-8p7---|
E|--------------8---8-8-----6---6-8p6-5-1---1-1-1/-----------------------------------|

3:32
G|------------------------------------------------------------------------------------|
D|------------------------------------------------------------------------------------|
A|--5---5-8p7-5---5-8p7-5---5-8p7-5---5-8p7-5---5-8p7-5---5-8p7-5---5-8p7-5---5-8p7---|
E|------------------------------------------------------------------------------------|


Chorus 3:
3:45
G|------------------------------------|
D|------5-------5---------------------|
A|----5---5---5---5---9-7-5---9-7-5---|
E|--6-------6-------7-------7---------|

3:51
G|----------------------4-------4-------9-------9-----|
D|----5-------5---------------------------9-------9---|
A|------7-4-----7-4---5---5---5---5---7-------7-------|
E|--5-------5-------3-------3-------0-------0---------|

4:01
G|------------------------------------|
D|------5-------5---------------------|
A|----5---5---5---5---9-7-5---9-7-5---|
E|--6-------6-------7-------7---------|

4:07
G|----------------------4-------4-------9-------9-----|
D|----5-------5---------------------------9-------9---|
A|------7-4-----7-4---5---5---5---5---7-------7-------|
E|--5-------5-------3-------3-------0-------0---------|


Outro:
4:17
G|---------------------------------------|
D|---------------------------------------|
A|------------------5---7---8---10---5---|
E|--3---5---6---8------------------------|


************************************


| h  Hammer-on
| p  Pull-off
| /  Slide up


************************************

Almost there ...

Sign in to get your own page with links to favourite songs and more. You are just one click away...

Login with Facebook Login with Google