Log in

One click and you are in

Login with Facebook Login with Google

Why sign up and log in

Guitar Tabs Explorer
Eve 6 tabs for Promise

Guitar tabs with lyrics

Title: "Promise"
Album: Horrorscope
Tabbed by: Alex Stroshane (Edge2693@hotmail.com)


NOTE: After seeing EVE 6 live, I realized that my old tab
was pretty wrong. As near as I can tell, this is how their
guitarist plays it.

Use a clean tone for the verses and bridge, switch to
distortion for the chorus. Try using a little bit of chorus
effect for the bridge. I use the mid pickup of my Strat.
Hope you can read the tab ok.

x = strum muted string
\ = slide up
Intro/Verse
-----------

Palm mute, play the A chord diagramG+G string softly.

G-4-2-4-2-4-2-4-2-|-4-2-4-2-4-2-4-2-|
D-2-2-2-0-0-0-0-0-|-2-2-2-0-0-0-0-0-|
A-0-0-0-----------|-----------------|
E-----------------|-----------------|  X4

G-4-2-4-2-4-2-4-2-|-4-2-4-2-----4-2-|
D-2-2-2-0-0-0-0-0-|-2-2-2-0---4-----|
A-0-0-0-----------|-----------------|
E-----------------|-----------------|

Lift your palm just a little and hit the A chord diagramG+G string harder.

G-4-2-4-2-4-2-4-2-|-4-2-4-2-4-2-4-2-|
D-2-2-2-0-0-0-0-0-|-2-2-2-0-0-0-0-0-|
A-0-0-0-----------|-----------------|
E-----------------|-----------------|

G-4-2-4-2-4-2-4-2-|-4-2-4-2-6-2-4-2-|
D-2-2-2-0-0-0-0-0-|-2-2-2-0-0-0-0-0-|
A-0-0-0-----------|-----------------|
E-----------------|-----------------|

G-4-2-4-2-4-2-4-2-|-4-2-4-2-4-2-4-2-|
D-2-2-2-2-2-2-2-2-|-2-2-2-0-0-0-0-0-|
A-0-0-0-0-0-0-0-0-|-2-2-2-----------|
E-----------------|-0-0-0-----------|

Slowly lift palm mute, then kick on distortion.
e-----------------|---------3-3-3---3-3-3-3-|
B-----------------|---------3-3-3---3-3-3-3-|
G---------------9-|---9-9---0-0-0---0-0-0-0-|
D-6-6-6-6-7-7-7-9-|---9-9-------------------|
A-4-4-4-4-5-5-5-7-|---7-7-------------------|
E-----------------|-------------------------|
    Red as a newborn...

Chorus
------

G----------7-7-xxxx-|-------------------|
D-7-7-xxxx-7-7-xxxx-|-2-2-xxxx-2-2-xxxx-|
A-7-7-xxxx-5-5-xxxx-|-2-2-xxxx-2-2-xxxx-|
E-5-5-xxxx----------|-0-0-xxxx-0-0-xxxx-|  X2
      Promise not to try...

G----------7-7-xxxx-|------------------|
D-7-7-xxxx-7-7-xxxx-|-2-2-xxxx-4-4-4\7-|
A-7-7-xxxx-5-5-xxxx-|-2-2-xxxx-4-4-4\7-|
E-5-5-xxxx----------|-0-0-xxxx-2-2-2\5-|
      Promise not to lie...

G---------7-7-7-7-|-9-9-9-9---------|
D-7-7-7-7-7-7-7-7-|-9-9-9-9-----4-2-|
A-7-7-7-7-5-5-5-5-|-7-7-7-7---4-----|
E-5-5-5-5---------|-----------------|
             ...to let you down.


Verse 2
-------

Same as the second half of verse 1.


Chorus 2
--------

Same as Chorus 1 except end like this:

                          hold note
G---------7-7-7-7-|-9-9-9-9---------|
D-7-7-7-7-7-7-7-7-|-9-9-9-9---------|
A-7-7-7-7-5-5-5-5-|-7-7-7-7---------|
E-5-5-5-5---------|-----------------|
             ...to let you down, to let me down...


Bridge
------

B-----10------10--|-----10------10--|
G---9--------9--9-|---9--------9--9-|
D-------0---------|-------0---------|
A-9---------------|-7---------------|
E-----------------|-----------------|

B-----10------10--|-----10------10--|
G---9--------9--9-|---9--------9--9-|
D-------0---------|-----------------|
A-9---------------|-7-----0---------|
E-----------------|-----------------|

B-----10------10--|-----10------10--|
G---9--------9--9-|---9--------9--9-|
D-------0---------|-------0---------|
A-9---------------|-7---------------|
E-----------------|-----------------|

B-----10------10--|-----10------10--|
G---9--------9--9-|---9--------9--9-|
D-------0---------|-------0---------|
A-9---------------|-7---------------|
E-----------------|-----------------|

B-----10------10--|-----10------10--|
G---9--------9--9-|---9--------9--9-|
D-------0---------|-7---------------|
A-9---------------|-------7---------|
E-----------------|-----------------|

B-----10------10--|
G---9--------9--9-|
D-------0---------|
A-9---------------|
E-----------------|

G-4-4-2-2-4-4-2-2-4-4-2-2-4-4-2-2-|
D-2-2-2-2-2-2-2-2-2-2-2-2-2-2-2-2-|
A---------------------------------|
E---------------------------------|  X2


Chorus/Outro
------------

As before except no muted strumming, e.g:

G----------7-7------|----------7-7------|
D-7-7------7-7------|-2-2------7-7------|
A-7-7------5-5------|-2-2------5-5------|
E-5-5---------------|-0-0---------------| And so on.

The ending is like this:

G----------7-7------|-------------------------|
D-7-7------7-7------|-2-2--2--2-2--2--2-2-2-2-|
A-7-7------5-5------|-2-2--2--2-2--2--2-2-2-2-|
E-5-5---------------|-0-0--0--0-0--0--0-0-0-0-|

Kick on some reverb for the very last chord.

Hope you enjoy the tab! Comments/questions: Edge2693@hotmail.com

Almost there ...

Sign in to get your own page with links to favourite songs and more. You are just one click away...

Login with Facebook Login with Google