Log in

One click and you are in

Login with Facebook Login with Google

Why sign up and log in

Guitar Tabs Explorer
Eve 6 chords for How much longer

Guitar chords

Eve 6-How Much Longer
Tabbed by Mike McCarthy pickboy007@hotmail.com

Two three chord riffs:
Riff 1:Verse and chopped prechorus:

A chord diagramF#5F#5                  A chord diagramE5E5        A chord diagramB5B5

E----------------------------------------------
B----------------------------------------------
G-----------------------------4-4-4-4-4-4------
D-4-4-4-4-4-4-4-4-4-2-2-2-2-2-4-4-4-4-4-4------
A-4-4-4-4-4-4-4-4-4-2-2-2-2-2-2-2-2-2-2-2------
E-2-2-2-2-2-2-2-2-2-0-0-0-0-0------------------

Drag this...


Riff 2:Chorus:

 A chord diagramC#5C#5                  A chord diagramB5B5        A chord diagramF#5F#5
E-----------------------------------------
B-----------------------------------------
G-6-6-6-6-6-6-6-6-6-6-4-4-4-4-4-----------
D-6-6-6-6-6-6-6-6-6-6-4-4-4-4-4-4-4-4-4-4-
A-4-4-4-4-4-4-4-4-4-4-2-2-2-2-2-4-4-4-4-4-
E-------------------------------2-2-2-2-2-

How much longer...


Verse 1:

Riff1

Drag this...

Prechorus:

Riff1 (Really chop it with the rhythm of the words)

Peers don't know...


Chorus:

Riff2

How much longer...


Verse 2:

Riff1

Abtruse and lacking...


Prechorus:

Riff1 (This time hit each chord only once)

Repeat


Chorus:

Riff2

Repeat lyrics 2X


Outro:

Play Riff2 but hack in the middle with the drums

Almost there ...

Sign in to get your own page with links to favourite songs and more. You are just one click away...

Login with Facebook Login with Google