Log in

One click and you are in

Login with Facebook Login with Google

Why sign up and log in

Guitar Tabs Explorer
Eurythmics bass tabs for I could give you a mirror

Bass tabs

Tuning: 0

Difficulty: 0

Tabbed by: bassm99
E-mail: alanmatthews1966@yahoo.co.uk
Tuning: E, A, D, G

"I Could Give You (A Mirror)" from the album "Sweet Dreams (Are Made Of This)" (1983)
Written by Lennox/Stewart

Bass Starts 0:07


Intro:

G|--------------------------------------------------------------------------|
D|----------------------------------6-888-6---------------------------------|
A|--6-888-6-(x8)--6-888-6--6-888-6-----------6-888-6-(x2)-------------------|
E|--------------------------------------------------------------------------|


Verse: (Play Twice)

G|--------------------------------------------------------------------------|
D|--------------------6-888-6-----------------------------------------------|
A|--6-888-6--6-888-6-----------6-888-6--------------------------------------|
E|--------------------------------------------------------------------------|


Chorus:

G|--------------------------------------------------------------------------|
D|--------------------------------------------------------------------------|
A|--------------------8-----------------------------------------------------|
E|--6--4-1-(x3)--6--4-------------------------------------------------------|

Pre Verse: (Play Twice)

G|--------------------------------------------------------------------------|
D|--------------------6-888-6-----------------------------------------------|
A|--6-888-6--6-888-6-----------6-888-6--------------------------------------|
E|--------------------------------------------------------------------------|

Repeat Verse:

Repeat Chorus:

Bridge: (Play Twice)

G|--------------------------------------------------------------------------|
D|--------------------------------------------------------------------------|
A|--3----6------------------------------------------------------------------|
E|--------------------------------------------------------------------------|


Chorus:

G|--------------------------------------------------------------------------|
D|--------------------------------------------------------------------------|
A|--8--6-3-(x3)--8--6-------------------------------------------------------|
E|--------------------8-----------------------------------------------------|

Pre Verse: (Play Twice)

G|--------------------------------------------------------------------------|
D|--------------------------------------------------------------------------|
A|--------------------6-888-6-----------------------------------------------|
E|--6-888-6--6-888-6-----------6-888-6--------------------------------------|


Verse: (Play Twice)

G|--------------------------------------------------------------------------|
D|--------------------------------------------------------------------------|
A|--------------------6-888-6-----------------------------------------------|
E|--6-888-6--6-888-6-----------6-888-6--------------------------------------|


Chorus:

G|--------------------------------------------------------------------------|
D|--------------------------------------------------------------------------|
A|--8--6-3-(x3)--8--6-------------------------------------------------------|
E|--------------------8-----------------------------------------------------|


Ending:

G|----1010---1010----88-----------------------------------------------------|
D|-------------------------1010-(x12)---------------------------------------|
A|--88-----88------66-------------------------------------------------------|
E|-----------------------88----------------8--------------------------------|

Almost there ...

Sign in to get your own page with links to favourite songs and more. You are just one click away...

Login with Facebook Login with Google