Log in

One click and you are in

Login with Facebook Login with Google

Why sign up and log in

Guitar Tabs Explorer
Eternal Decision guitar tabs for Hunger

Guitar tabs with lyrics

this is in standard tuning eadgbe
Part 1.
Here^Òs the hardcore opening with lots of distortion.  Play this twice and
on
the second
time there^Òs a high note I can^Òt find.  I thought it was on the high e
string on the
18th fret, but then that sounded much too high.  Maybe someone else can
figure that one
out and email it to me.
|---------------------------------------------|
|---------------------------------------------|
|-5--------------------5----8----7---7-7--8--7|
|-5----6----5------6-5-5----8----7---7-7--8--7|
|-3----6----5------6-5-3----6----5---5-5--6--5|
|------4----3------4-3------------------------|
Part 2.
Part 1 plays a while and then goes into something like this with a nice
quiet effect.
Flange or something.  This too, I^Òm sure, is quite wrong, but again,
someone
else can
figure this one out and email it to me.
|----------------------------------------------------------|
|---------------------3------------------------------------|
|---0-0h1-1h2---2h3-----32------0-0h1-1h2----2h3-----------|
|----------------------------------------------------------|
|-3-----------3-----3---------3-----------3-------3----1---|
|----------------------------------------------------4-----|
Part 3.
The next three riffs are where it does this semi-fast thing with dist.  You
can figure
out the order for all this stuff if you just try.
|---------------------------------|
|---------------------------------|
|---------------------------------|
|---------------------------------|
|-3-3-3-4-3-3-6-3-3-4-3-3---------|
|--------------------------3-4-6--|

|-------------------------------------------------------------
|-------------------------------------------------------------
|-------------------------------------------------------------
|-------------------------------------------------------------
|-3--3-3--4-3-------3--3-3--6-3--3-3-3--3--3-3--4-3---3-3-3---
|-------------------------------------------------------------

---------------------
---------------------
---------------------
---------------------
-3--3-3--6-3---------
--------------3-4-6~-

_________________________________________________________________

↓ Add and view comments below ↓

What do you think about this song and these tabs?

Add your comments, questions, rant or a thumbs up below.

Almost there ...

Sign in to get your own page with links to favourite songs and more. You are just one click away...

Login with Facebook Login with Google