Log in

One click and you are in

Login with Facebook Login with Google

Why sign up and log in

Guitar Tabs Explorer
Escape The Fate bass tabs for World around me

Bass tabs

-------------------------------------------------------------------------------
			   WORLD AROUND ME - Escape The Fate
-------------------------------------------------------------------------------
Tabbed By : mariewong.





Tuning: Drop C.





Verse [00:36]

F|--------------2~-2-2-5-7~---7~-7-9---------7-10~-10~-9-10-14~-14\9--|
C|--0~---0~-0-3-------------7--------8~-8-10--------------------------|
G|-----0--------------------------------------------------------------|
C|--------------------------------------------------------------------|



Chorus [00:58]

F|----------------------------2~-22-2-5--|
C|------------0-3~-33-3-5-3-0------------|
G|--1~-11-1-1----------------------------|
C|---------------------------------------|

F|------------0-2-3~-33-------2~--2/9----------|
C|--0~-2~-23~-----------3~-33----2-------------|
G|------------------------------------12\0-----|
C|-----------------------------------------0~--|



Verse [01:34]

F|------------------2~-2-2-5-7~---7~-7-9---------7-10~-10~--|
C|-----------0~-0-3-------------7--------8~-8-10------------|
G|------5~-0------------------------------------------------|
C|--/7\-----------------------------------------------------|

F|--9-10-14~-14----14-12-14--|
C|--------------14-----------|
G|---------------------------|
C|---------------------------|



Chorus [01:57]

F|----------------------------2~-22-2-5--|
C|------------0-3~-33-3-5-3-0------------|
G|--1~-11-1-1----------------------------|
C|---------------------------------------|

F|------------0-2-3~-33-------2~--2/9--------|
C|--0~-2~-23~-----------3~-33----2-----------|
G|------------------------------------12\0---|
C|-------------------------------------------|

F|---------------------|
C|---------------------|
G|---------------------|
C|-8~-7-5~-3-1~-1~-0~--|



Break [02:38]



Solo [03:05]

F|------------------------------|
C|------------------------------|
G|------------------------------|
C|--0~-2-3-12~-10-8-10~-8-7-0~--|

F|---------------------------------|
C|---------------------------------|
G|---------------------------------|
C|--0~-2-3-12~-10-8-14~-15-14-12~--|

F|-----------------|
C|-----------------|
G|-----------------|
C|--0-000-000-000--|

F|-------------------|
C|-------------------|
G|-------------------|   [x5]
C|--000-000-000-000--|

F|--------------------------------------|
C|--------------------------------------|
G|--------------------0-000-000-000-00--|
C|--0-000-000-000-00--------------------|

F|--------------------------------------|
C|--0-000-000-000-00--------------------|
G|--------------------1-111-111-111-11--|
C|--------------------------------------|

F|--------------------------------------|
C|--------------------------------------|
G|--------------------0-000-000-000-00--|
C|--3-333-333-333-33--------------------|



Chorus [04:04]

F|--------------------------------------|
C|--------------------3-333-333-333-33--|
G|--1-111-111-111-11--------------------|
C|--------------------------------------|

F|--2-222-222-222-22-----------------0-2--|
C|--------------------0-00-2-22-3-33------|
G|----------------------------------------|
C|----------------------------------------|

F|--3-333-333-333-33--------------------|
C|--------------------3-333-333-333-33--|
G|--------------------------------------|
C|--------------------------------------|

F|--2-222-222-222-22--2(x16)--3~-2-0~-------------|
C|------------------------------------3-1~-1~-0~--|
G|------------------------------------------------|
C|------------------------------------------------|




| / slide up
| \ slide down
| h hammer-on
| p pull-off
| ~ vibrato
| + harmonic
| x Mute note

Almost there ...

Sign in to get your own page with links to favourite songs and more. You are just one click away...

Login with Facebook Login with Google