Log in

One click and you are in

Login with Facebook Login with Google

Why sign up and log in

Guitar Tabs Explorer
Escape The Fate bass tabs for The final blow

Bass tabs

THE FINAL BLOW - Escape The Fate
-------------------------------------------------------------------------------

Tabbed By : mariewong.



Tuning: Drop C.





Intro [00:00]

F|--------------------------------------------|
C|--------------------------------------------|
G|-----0--3-5-7-7-5-3--1~---------------------|
C|--0----------------------33333333-22222222--|



Verse [00:09]

F|-----------------------------------------------------------------------|
C|-----------------------------------------------------------------------|
G|------------------3-3--3333-3-3---1-1--1111-1-1------------------------|
C|--0-0--0000-0-0-----------------------------------3-3-3333---2-2-2222--|

F|-----------------------------------------------------------------------|
C|-----------------------------------------------------------------------|
G|------------------3-3--3333-3-3---1-1--1111-1-1------------------------|
C|--0-0--0000-0-0-----------------------------------3-3-3333---2-2-2222--|

F|-----------------------|
C|-----------------------|
G|-------------44444444--|
C|--3-3-3333-------------|



Chorus [00:30]

F|---------------------------------------------|
C|---------------------------------------------|
G|--11-1-111---00-0-000--------------33-3-333--|
C|------------------------00-0-000-------------|

F|---------------------------------------------|
C|---------------------------------------------|
G|--11-1-111---00-0-000--------------33333333--|
C|------------------------00-0-000-------------|

F|---------------------------|
C|---------------------------|
G|--1~--1-0~--0-------3~--3--|
C|--------------0~--0--------|

F|-------------------------------------------------------|
C|-------------------------------------------------------|
G|--1~--1-0~--0------------33-3-333--11111111--00000000--|
C|--------------00-0-000---------------------------------|



Verse [00:51]

F|-----------------------------------------------------------------------|
C|-----------------------------------------------------------------------|
G|------------------3-3--3333-3-3---1-1--1111-1-1------------------------|
C|--0-0--0000-0-0-----------------------------------3-3-3333---2-2-2222--|

F|-----------------------------------------------------------------------|
C|-----------------------------------------------------------------------|
G|------------------3-3--3333-3-3---1-1--1111-1-1------------------------|
C|--0-0--0000-0-0-----------------------------------3-3-3333---2-2-2222--|

F|-----------------------|
C|-----------------------|
G|-------------44444444--|
C|--3-3-3333-------------|



Chorus [01:12]

F|---------------------------------------------|
C|---------------------------------------------|
G|--11-1-111---00-0-000--------------33-3-333--|
C|------------------------00-0-000-------------|

F|---------------------------------------------|
C|---------------------------------------------|
G|--11-1-111---00-0-000--------------33333333--|
C|------------------------00-0-000-------------|

F|---------------------------|
C|---------------------------|
G|--1~--1-0~--0-------3~--3--|
C|--------------0~--0--------|

F|-----------------------------------------------------------|
C|-----------------------------------------------------------|
G|--1~--1-0~--0------------33-3-333--11111111--00000000------|
C|--------------00-0-000---------------------------------0~--|



Break [01:33]



Solo [01:41]

F|-----------------------------------------|
C|-----------------------------------------|
G|---------33-3~--11-1~--------------------|   [x2]
C|--00-0~----------------33-3-33--22-2-22--|

F|----------------------------------------------|
C|----------------------------------------------|
G|--------------33-3~--11-1~--------------------|   [x2]
C|--00-0~--12\----------------33-3-33--22-2-22--|



Bridge [02:19]

F|------------------------------------------------------|
C|------------------------------------------------------|
G|------------------------------------------------------|
C|--0-0000-0-0000-0-8888-8-3333---0-0000-0-0000-8-8-10--|

F|-----------------------------------------------------------------|
C|-----------------------------------------------------------------|
G|-----------------------------------------------------------------|   [x2]
C|--0-0000-0-0000-0-8888-8-3333---0-0000-0-0000-0-8888-8-10101010--|

F|------------------------------------------|
C|------------------------------------------|
G|------------------------------------------|   [x4]
C|--000--000--8-3333---000-000--8-10101010--|



Chorus [02:51]

F|---------------------------------------------|
C|---------------------------------------------|
G|--11-1-111---00-0-000--------------33-3-333--|
C|------------------------00-0-000-------------|

F|------------------------------------|
C|------------------------------------|
G|--11-1-111---00-0-000---------3333--|
C|------------------------12\---------|

F|---------------------------------------------|
C|---------------------------------------------|
G|--11-1-111---00-0-000--------------33-3-333--|
C|------------------------00-0-000-------------|

F|---------------------------------------------|
C|---------------------------------------------|
G|--11-1-111---00-0-000--------------33333333--|
C|------------------------00-0-000-------------|

F|-----------------------------------|
C|-----------------------------------|
G|--11111111--00000000--------3~--3--|
C|----------------------0~--0--------|

F|-------------------------------------------------------|
C|-------------------------------------------------------|
G|--1~--1-0~--0------------33-3-333--11111111--00000000--|
C|--------------00-0-000---------------------------------|




| / slide up
| \ slide down
| h hammer-on
| p pull-off
| ~ vibrato
| + harmonic
| x Mute note

Almost there ...

Sign in to get your own page with links to favourite songs and more. You are just one click away...

Login with Facebook Login with Google