Log in

One click and you are in

Login with Facebook Login with Google

Why sign up and log in

Guitar Tabs Explorer
Escape The Fate bass tabs for Prepare your weapon

Prepare Your Weapon bass tab by Escape The Fate

Escape The Fate bass tabs for Prepare your weapon

Bass tabs

-------------------------------------------------------------------------------
			   PREPARE YOUR WEAPON - Escape The Fate
-------------------------------------------------------------------------------

Tabbed By : mariewong.



Tuning: Drop B





Intro [00:11]

 E|------------------|
 B|------------------|
F#|------------------|
 B|--5~----1~----0~--|

 E|-----------------------------------------------------------------|
 B|-----------------------------------------------------------------|
F#|-----------------------------------------------------------------|
 B|--5~-555-555-5-5-5-5-5-5-555-55----5~-555-555-5-5-5-5-5-5-555-5--|

 E|-----------------------------------------------|
 B|-----------------------------------------------|
F#|-----------------------------------------------|
 B|--1~-111-111-1-1-1-1-1-1-111-1----00-0(x12)-0--|

 E|-----------------------------------------------------------------|
 B|-----------------------------------------------------------------|
F#|-----------------------------------------------------------------|
 B|--5~-555-555-5-5-5-5-5-5-555-55----5~-555-555-5-5-5-5-5-5-555-5--|

 E|----------------------------------------------------------------|
 B|----------------------------------------------------------------|
F#|----------------------------------------------------------------|
 B|--1~-111-111-1-1-1-1-1-1-111-1----0~-000-000-0-0-0-0-0-0-000-0--|



Verse [00:43]

 E|---------------------------------------|
 B|---------------------------------------|
F#|---------------------------------------|
 B|--5~-555-555--5-555----555-555--5-555--|

 E|--------------------------------------------|
 B|--------------------------------------------|
F#|--------------------------------------------|
 B|--111-111--1-111----000-000--000-000-000-0--|

 E|------------------------------------|
 B|------------------------------------|
F#|------------------------------------|
 B|--555-555--5-555----555-555--5-555--|

 E|--------------------------------------------|
 B|--------------------------------------------|
F#|--------------------------------------------|
 B|--111-111--1-111----000-000--000-000-000-0--|



Pre-chorus [01:05]

 E|---------------------------------------------------------------|
 B|---------------------------------------------------------------|
F#|---------------------------------------------------------------|
 B|--1~-111-111-111-111-111--1-3-x--1-111-111-111-111-111--1-3-x--|

 E|--------------------------------------------|
 B|--------------------------------------------|
F#|--------------------------------------------|
 B|--3-5-555-555--5-555----3-5-555-555--5-555--|

 E|---------------------------------------------------------------|
 B|---------------------------------------------------------------|
F#|---------------------------------------------------------------|
 B|--1~-111-111-111-111-111--1-3-x--1-111-111-111-111-111--1-3-x--|

 E|-------------------------------------|
 B|-------------------------------------|
F#|-------------------------------------|
 B|--3-5-555-555--5-555----3-5-555-555--|



Chorus [01:26]

 E|----------------------------------|
 B|----------------------------------|
F#|------------------3(x16)--5(x16)--|   [x2]
 B|--5(x16)--0(x16)------------------|



Verse [01:47]

 E|--------------------------------------------|
 B|--------------------------------------------|
F#|--------------------------------------------|
 B|--5~-555-555-55-5~----5~-555-555-555-5~-5~--|

 E|---------------------------------------|
 B|---------------------------------------|
F#|---------------------------------------|
 B|-111-111-11-1~-1~----000-000-00-0~-0~--|

 E|------------------------------------|
 B|------------------------------------|
F#|------------------------------------|
 B|--555-555--5-555----555-555--5-555--|

 E|--------------------------------------------|
 B|--------------------------------------------|
F#|--------------------------------------------|
 B|--111-111--1-111----000-000--000-000-000-0--|



Pre-chorus [02:09]

 E|---------------------------------------------------------------|
 B|---------------------------------------------------------------|
F#|---------------------------------------------------------------|
 B|--1~-111-111-111-111-111--1-3-x--1-111-111-111-111-111--1-3-x--|

 E|--------------------------------------------|
 B|--------------------------------------------|
F#|--------------------------------------------|
 B|--3-5-555-555--5-555----3-5-555-555--5-555--|

 E|---------------------------------------------------------------|
 B|---------------------------------------------------------------|
F#|---------------------------------------------------------------|
 B|--1~-111-111-111-111-111--1-3-x--1-111-111-111-111-111--1-3-x--|

 E|-------------------------------------|
 B|-------------------------------------|
F#|-------------------------------------|
 B|--3-5-555-555--5-555----3-5-555-555--|



Chorus [02:31]

 E|----------------------------------|
 B|----------------------------------|
F#|------------------3(x16)--5(x16)--|   [x2]
 B|--5(x16)--0(x16)------------------|

 E|--------------------|
 B|--------------------|
F#|--------------------|
 B|--4(x8)--7(x8)--5~--|



Break [02:56]



Solo [03:27]

 E|----------------------------------------------|
 B|----------------------------------------------|
F#|---------35\-55--13\-33--35\-05------0-5-0----|   [x2]
 B|--5\-55--------------------------0-4-------8--|

 E|-------------------------------------------------------------|
 B|-------------------------------------------------------------|
F#|-------------35~-5(x13)--13~-3(x13)--35~-5(x8)------0-5-0----|   [x3]
 B|--5~-5(x14)-------------------------------------0-4-------8--|

 E|-----------------------------------------------------|
 B|-----------------------------------------------------|
F#|-------------35~-5(x13)--13~-3(x13)--35~-5(x14)------|
 B|--5~-5(x14)--------------------------------------5~--|




| / slide up
| \ slide down
| h hammer-on
| p pull-off
| ~ vibrato
| + harmonic
| x Mute note

Almost there ...

Sign in to get your own page with links to favourite songs and more. You are just one click away...

Login with Facebook Login with Google