Log in

One click and you are in

Login with Facebook Login with Google

Why sign up and log in

Guitar Tabs Explorer
Escape The Fate bass tabs for Lost in darkness

Lost In Darkness bass tab by Escape The Fate

Escape The Fate bass tabs for Lost in darkness

Bass tabs

-------------------------------------------------------------------------------
			   LOST IN DARKNESS - Escape The Fate
-------------------------------------------------------------------------------

Tabbed By : mariewong.



Tuning: Drop B





Intro [00:10]

 E|----------|
 B|----------|
F#|----------|
 B|--5~--5~--|

 E|---------------------------------------------|
 B|---------------------------------------------|
F#|---------------------------------------------|   [x2]
 B|--5~-5~-58---1~-0~-00---5~-5~-58---1~-3~-33--|



Verse [00:36]

 E|---------------------------------------------|
 B|---------------------------------------------|
F#|---------------------------------------------|   [x2]
 B|--5~-5~-58---1~-0~-00---5~-5~-58---1~-3~-33--|

 E|----------|
 B|----------|
F#|----------|
 B|--1~--0~--|



Chorus [00:58]

 E|------------------------|
 B|------------------------|
F#|------------------------|   [x3]
 B|--5~-5~-58---1~-0~-000--|

 E|----------------|
 B|----------------|
F#|----------------|
 B|--11111111--0~--|


Post-chorus [01:16]

 E|-----------------------------------------|
 B|-----------------------------------------|
F#|-----------------------------------------|
 B|--5~-5~-58---1~-0~-000---5~-5~-558---1~--|



Verse [01:25]

 E|-----------------------|
 B|-----------------------|
F#|-----------------------|   [x4]
 B|--5~-5~-58---1~-0~-00--|

 E|----------|
 B|----------|
F#|----------|
 B|--1~--0~--|



Chorus [01:46]

 E|------------------------|
 B|------------------------|
F#|------------------------|   [x3]
 B|--5~-5~-58---1~-0~-000--|

 E|----------------------------------------|
 B|----------------------------------------|
F#|----------------------------------------|
 B|--11111111--00000000-11111111-00000000--|



Solo [02:09]

 E|------------------------|
 B|------------------------|
F#|------------------------|   [x3]
 B|--5~-5~-58---1~-0~-000--|

 E|----------------------|
 B|----------------------|
F#|----------------------|
 B|--1-11-111--0000-0-0--|



Break [02:25]



Chorus [02:47]

 E|------------------------|
 B|------------------------|
F#|------------------------|   [x3]
 B|--5~-5~-58---1~-0~-000--|

 E|-------------------------|
 B|-------------------------|
F#|-------------------------|
 B|--11111111--000000-0000--|

 E|------------------------|
 B|------------------------|
F#|------------------------|   [x3]
 B|--5~-5~-58---1~-0~-000--|

 E|--------------------------------------------|
 B|--------------------------------------------|
F#|--------------------------------------------|
 B|--11111111--0~-0~---11111111--00000000--5~--|




| / slide up
| \ slide down
| h hammer-on
| p pull-off
| ~ vibrato
| + harmonic
| x Mute note

Almost there ...

Sign in to get your own page with links to favourite songs and more. You are just one click away...

Login with Facebook Login with Google