Log in

One click and you are in

Login with Facebook Login with Google

Why sign up and log in

Guitar Tabs Explorer
Escape The Fate bass tabs for Let it go

Bass tabs

-------------------------------------------------------------------------------
			   LET IT GO - Escape The Fate
-------------------------------------------------------------------------------

Tabbed By : mariewong.

Tuning: Drop C.


Intro [00:00]

F|----------------------------------------------------------------------------|
C|----------------------------------------------------------------------------|
G|--------333333333---4-4--4-555555555---1-1--1-------------3-3--3-334444444--|
C|-3-3--3---------------------------------------333333333---------------------|

F|----------------------------------------------------------------------------|
C|----------------------------------------------------------------------------|
G|--------333333333---4-4--4-555555555---1-1--1-------------3-3--3-334444444--|
C|-3-3--3---------------------------------------333333333---------------------|



Verse [00:24]

F|-----------------------------------------|
C|-----------------------------------------|
G|--5-5--5-5--------------------8-8-7-444--|
C|-----------7-7--5-7-8-8--8-8-------------|

F|-----------------------------------------|
C|-----------------------------------------|
G|--5-5--5-5--------------------8-8-7-4-5--|
C|-----------7-7--5-7-8-8--8-8-------------|



Pre-chorus [00:35]

F|------------------------------------------|
C|------------------------------------------|
G|--55555555----------------------88774444--|   [x2]
C|------------77777757--88888888------------|

F|-------------------------------------|
C|-------------------------------------|
G|--111~-1-1-11--1-1111----444~-4-44\--|
C|-------------------------------------|



Chorus [00:51]

F|----------------------------------------------------------------------------|
C|----------------------------------------------------------------------------|
G|--------333333333---4-4--4-555555555---1-1--1-------------3-3--3-334444444--|
C|-3-3--3---------------------------------------333333333---------------------|

F|----------------------------------------------------------------------------|
C|----------------------------------------------------------------------------|
G|--------333333333---4-4--4-555555555---1-1--1-------------3-3--3-334444444--|
C|-3-3--3---------------------------------------333333333---------------------|



Verse [01:13]

F|---------------------------------------------|
C|--0-12--0-12--------------8----8-------------|
G|----------------------------------0-0-8\-----|
C|-------------7-77--7775-8----8---------------|

F|---------------------------------------------|
C|--0-12--0-12--------------8----8-------------|
G|----------------------------------8-8-7-4-5--|
C|-------------7-77--7775-8----8---------------|



Pre-chorus [01:24]

F|------------------------------------------|
C|------------------------------------------|
G|--55555555----------------------88774444--|   [x2]
C|------------77777757--88888888------------|

F|-------------------------------------|
C|-------------------------------------|
G|--111~-1-1-11--1-1111----444~-4-44\--|
C|-------------------------------------|



Chorus [01:41]

F|----------------------------------------------------------------------------|
C|----------------------------------------------------------------------------|
G|--------333333333---4-4--4-555555555---1-1--1-------------3-3--3-334444444--|
C|-3-3--3---------------------------------------333333333---------------------|

F|-----------------------------------------------------------------------|
C|-----------------------------------------------------------------------|
G|--------333333333---4-4--4-55555-/12---1-1--1-------------33-3-33-3-4--|
C|-3-3--3---------------------------------------333333333----------------|



Bridge [02:03]

F|-----------------------------------------------------|
C|-----------------------------------------------------|
G|---------3~---4-4--4-5~---1-1--1------3-3--3-333334--|
C|--3-3--3-------------------------3~------------------|



Solo [02:14]

F|----------------------------------------------------------------------------|
C|----------------------------------------------------------------------------|
G|--------333333333---4-4--4-555555555---1-1--1-------------3-3--3-334444444--|
C|-3-3--3---------------------------------------333333333---------------------|



Break [02:25]



Pre-chorus [02:35]

F|--------|
C|--------|
G|--4444--|
C|--------|

F|------------------------------------------|
C|------------------------------------------|
G|--55555555----------------------88774444--|   [x2]
C|------------77777757--88888888------------|

F|--------------------------|
C|--------------------------|
G|--1-1~-1-1~----4-4~-4-5~--|
C|--------------------------|



Chorus [03:04]

F|----------------------------------------------------------------------------|
C|----------------------------------------------------------------------------|
G|--------333333333---4-4--4-55555-/12---1-1--1-------------3-3--3-334444444--|
C|-3-3--3---------------------------------------333333333---------------------|

F|-------------------------------------------------------------|
C|---------------------------0-12-0-12-457-8888-7777-33333333--|
G|--------------------4-4--4-----------------------------------|
C|-3-3--3-2-0235320--------------------------------------------|

F|----------------------------------------|
C|-------------------------0-12-0-12------|
G|--33-3-33-3-44444-----------------------|
C|------------------975--------------0-0--|




| / slide up
| \ slide down
| h hammer-on
| p pull-off
| ~ vibrato
| + harmonic
| x Mute note

Almost there ...

Sign in to get your own page with links to favourite songs and more. You are just one click away...

Login with Facebook Login with Google