Log in

One click and you are in

Login with Facebook Login with Google

Why sign up and log in

Guitar Tabs Explorer
Epica bass tabs for Resign to surrender

Bass tabs

Tuning: B Tuning (B E A D)

Resign To Surrender (A New Age Dawns part IV) - Epica
Intro: (0:13)

G|---------------------------|---------------------------|
D|---------------------------|---------------------------|
A|---------------------------|---------------------------|
E|--2-2-2-2-2-2-2-2-2--------|--1-1-1-1-1-1-1-1-1--------|
B|---------------------------|---------------------------|


G|----------------------------|--------------------------------|
D|----------------------------|--------------------------------|
A|----------------------------|--------------------------------|
E|--2-2-2-2-2-2-2-2-2---------|--1--2--1-----------------------|
B|-------------------------2--|-----------0--3--------2--------|

                           PM
G|---------------------------|-----------------------------|
D|---------------------------|-----------------------------|
A|---------------------------|-----------------------------|
E|--2-2-2-2-2-2-2-2-2--------|--1-1-1-1-1-1-1-1-1----1--1--|
B|---------------------------|-----------------------------|


G|----------------------------|--------------------------------|
D|----------------------------|--------------------------------|
A|----------------------------|--------------------------------|
E|--2-2-2-2-2-2-2-2-2---------|--------------------------------|
B|-------------------------3--|--2--2-2/6--6-6-6/9--9-9-9-9----|

G|---------------------------|---------------------------|
D|---------------------------|---------------------------|
A|---------------------------|---------------------------|
E|--2-2-2-2-2-2-2-2-2--------|--1-1-1-1-1-1-1-1-1--------|
B|---------------------------|---------------------------|


G|----------------------------|--------------------------------|
D|----------------------------|--------------------------------|
A|----------------------------|--------------------------------|
E|--2-2-2-2-2-2-2-2-2---------|--1--2--1-----------------------|
B|-------------------------2--|-----------0--3--------2--------|

                           PM
G|---------------------------|-----------------------------|---------------------|
D|---------------------------|-----------------------------|---------------------|
A|---------------------------|-----------------------------|---------------------|
E|--2-2-2-2-2-2-2-2-2--------|--1-1-1-1-1-1-1-1-1----1--1--|---------------------|
B|---------------------------|-----------------------------|--0---------------0--|


G|-------------------|
D|-------------------|
A|-------------------|
E|-------------------|
B|--2----------------|


Verse: (0:43)

G|-------------------------------|
D|-------------------------------|
A|-------------------------------|
E|-------------------------------|
B|--2/4-4-4--4-4-4--4--4-4-4-4-4-|


G|---------------------------------|-------------------------------|
D|---------------------------------|-------------------------------|
A|---------------------------------|-------------------------------|
E|------------------------6-7-6----|-------------------------------|
B|--2/4-4-4--4-4-4-5-4-5--------8--|--2/4-4-4--4-4-4--4--4-4-4-4-4-|


G|-------------------------------------|-------------------------------|
D|-------------------------------------|-------------------------------|
A|-------------------------------------|-------------------------------|
E|-------------------------------------|-------------------------------|
B|--4/5--5-5-5-5-5\2--2-2-2-2-2/5--5-5-|--2/4-4-4--4-4-4--4--4-4-4-4-4-|


G|---------------------------------|-----------------------------|-----------------------------|
D|---------------------------------|-----------------------------|-----------------------------|
A|---------------------------------|-----------------------------|-----------------------------|
E|------------------------6-7-6----|-----------------------------|-----------------------------|
B|--2/4-4-4--4-4-4-5-4-5--------8--|--4-4-4-4--4-4--3-3--3--3----|--7-7-7-7--7-7--6------------|


G|-------------------------------|
D|-------------------------------|
A|-------------------------------|
E|-------------------------------|
B|--2/4-4-4--4-4-4--4--4-4-4-4-4-|


G|---------------------------------|-------------------------------|
D|---------------------------------|-------------------------------|
A|---------------------------------|-------------------------------|
E|------------------------6-7-6----|-------------------------------|
B|--2/4-4-4--4-4-4-5-4-5--------8--|--2/4-4-4--4-4-4--4--4-4-4-4-4-|


G|-------------------------------------|-------------------------------|
D|-------------------------------------|-------------------------------|
A|-------------------------------------|-------------------------------|
E|-------------------------------------|-------------------------------|
B|--4/5--5-5-5-5-5\2--2-2-2-2-2/5--5-5-|--2/4-4-4--4-4-4--4--4-4-4-4-4-|


G|---------------------------------|-----------------------------|------------------------------|
D|---------------------------------|-----------------------------|------------------------------|
A|---------------------------------|-----------------------------|------------------------------|
E|------------------------6-7-6----|----------------3-3--3--3----|----------------6-6-6-6-6-----|
B|--2/4-4-4--4-4-4-5-4-5--------8--|--4-4-4-4--4-4---------------|--0-0-0-0--0-0----------------|


Pre-Chorus: (1:12)

G|----------------------------|-------------------------|
D|----------------------------|-------------------------|
A|----------------------------|-------------------------|
E|----------------------------|-------------------------|
B|--4-4-4-4-4----4-4-4-4-4----|--4-4-4-4-4----5----5----|


G|----------------------------|--------------------------|
D|----------------------------|--------------------------|
A|----------------------------|--------------------------|
E|----------------------------|----------------3----2----|
B|--4-4-4-4-4----4-4-4-4-4----|--5-5-5-5-5--5------------|


Chorus: (1:20)

G|---------------------|-------------------|
D|---------------------|-------------------|
A|---------------------|-------------------|
E|--0---------------0--|-------------------|
B|---------------------|--3----------------|


G|---------------------|----------------------|---------------------|
D|---------------------|----------------------|---------------------|
A|---------------------|-------1----2----4----|---------------------|
E|--3---------------3--|--2-------------------|--0---------------0--|
B|---------------------|----------------------|---------------------|


G|-------------------|----------------------|
D|-------------------|----------------------|
A|-------------------|----------------------|
E|-------------------|--3--------3---2------|
B|--0----------------|-------------------3--|


Verse: (1:33)

G|-------------------------------|
D|-------------------------------|
A|-------------------------------|
E|-------------------------------|
B|---------------------------4-4-|


G|---------------------------------|----------------------------|-------------------------|
D|---------------------------------|----------------------------|-------------------------|
A|---------------------------------|----------------------------|-------------------------|
E|------------------------6-7-6----|----------------------------|-------------------------|
B|--2/4-4-4--4-4-4-5-4-5--------8--|--4-4-4-4--4-4--3-3--3--3---|--7-7-7-7--7--7-6--------|


G|-------------------------------|
D|-------------------------------|
A|-------------------------------|
E|-------------------------------|
B|--2/4-4-4--4-4-4--4--4-4-4-4-4-|


G|---------------------------------|-------------------------------|
D|---------------------------------|-------------------------------|
A|---------------------------------|-------------------------------|
E|------------------------6-7-6----|-------------------------------|
B|--2/4-4-4--4-4-4-5-4-5--------8--|--2/4-4-4--4-4-4--4--4-4-4-4-4-|


G|-------------------------------------|-------------------------------|
D|-------------------------------------|-------------------------------|
A|-------------------------------------|-------------------------------|
E|-------------------------------------|-------------------------------|
B|--4/5--5-5-5-5-5\2--2-2-2-2-2/5--5-5-|--2/4-4-4--4-4-4--4--4-4-4-4-4-|


G|---------------------------------|----------------------------|------------------------------|
D|---------------------------------|----------------------------|------------------------------|
A|---------------------------------|----------------------------|------------------------------|
E|------------------------6-7-6----|----------------3-3--3--3---|----------------6-6-6-6-6-----|
B|--2/4-4-4--4-4-4-5-4-5--------8--|--4-4-4-4--4-4--------------|--0-0-0-0--0-0----------------|


Pre-Chorus: (1:51)

G|----------------------------|-------------------------|
D|----------------------------|-------------------------|
A|----------------------------|-------------------------|
E|----------------------------|-------------------------|
B|--4-4-4-4-4----4-4-4-4-4----|--4-4-4-4-4----5----5----|


G|----------------------------|--------------------------|
D|----------------------------|--------------------------|
A|----------------------------|--------------------------|
E|----------------------------|----------------3----2----|
B|--4-4-4-4-4----4-4-4-4-4----|--5-5-5-5-5--5------------|


Chorus: (2:02)

G|---------------------|-------------------|
D|---------------------|-------------------|
A|---------------------|-------------------|
E|--0---------------0--|-------------------|
B|---------------------|--3----------------|


G|---------------------|----------------------|---------------------|
D|---------------------|----------------------|---------------------|
A|---------------------|-------1----2----4----|---------------------|
E|--3---------------3--|--2-------------------|--0---------------0--|
B|---------------------|----------------------|---------------------|


G|-------------------|----------------------|
D|-------------------|----------------------|
A|-------------------|----------------------|
E|-------------------|--3--------3---2------|
B|--0----------------|-------------------3--| x2


Bridge: (2:28)

G|------------------------|-----------------------|
D|------------------------|-----------------------|
A|------------------------|-----------------------|
E|--0--0--0---------0--0--|--0--0-0---------------|
B|------------------------|-----------------------|


G|----------------------------------|---------------------------|
D|----------------------------------|---------------------------|
A|----------------------------------|---------------------------|
E|----------------------------------|---------------------------|
B|--1-1-1-1-1-1-1-1-1-1-1-1-1-1-1-1-|--1-1-1-1-1-1-1-1-5--------|


G|----------------------------------|-------------------------|
D|----------------------------------|-------------------------|
A|----------------------------------|-------------------------|
E|----------------------------------|-----5-------4-----3-----|
B|--1-1-1-1-1-1-1-1-1-1-1-1-1-1-1-1-|--3-------6-----6-----4--|


G|----------------------------------|---------------------------|
D|----------------------------------|---------------------------|
A|----------------------------------|---------------------------|
E|----------------------------------|---------------------------|
B|--1-1-1-1-1-1-1-1-1-1-1-1-1-1-1-1-|--1-1-1-1-1-1-1-1-5--------|


G|-------------------------|-------------------------|--rest-----|
D|-------------------------|-------------------------|--rest-----|
A|-------------------------|-------------------------|--rest-----|
E|-----5-------4-----3-----|-------------------------|--rest-----|
B|--3-------6-----6-----4--|--2--2--2-2--2-2---------|--rest-----|


After Choir Break: (3:01)

G|------------------------|
D|------------------------|
A|------------------------|
E|--4-4-4--4--4--4--------|
B|------------------------|


G|----------------------|------------------------|-------------------------|
D|----------------------|------------------------|-------------------------|
A|----------------------|------------------------|-------------------------|
E|--0----0--0--0--------|--4-4-4--4--4--4--------|-------------------------|
B|----------------------|------------------------|--1--1-----1--1-----1----|


G|------------------------|----------------------|------------------------|
D|------------------------|----------------------|------------------------|
A|------------------------|----------------------|------------------------|
E|--4-4-4--4--4--4--------|--0----0--0--0--------|--2-2-2--2--2--2--------|
B|------------------------|----------------------|------------------------|


G|--------------------|
D|--------------------|
A|--------------------|
E|--------------------|
B|--4--------5--------|


Breakdown: (3:16)

G|-------------------|---------------------|
D|-------------------|---------------------|
A|-------------------|---------------------|
E|-------------------|---------------------|
B|--1----------------|------------------1--|


G|-------------------|-------------------|----------------------|
D|-------------------|-------------------|----------------------|
A|-------------------|-------------------|----------------------|
E|-------------------|--4----------------|----------------------|
B|--1----------------|-------------------|--1---------1---------|


G|-----------------------|----------------------|-------------------|
D|-----------------------|----------------------|-------------------|
A|-----------------------|----------------------|-------------------|
E|-----------------------|----------------------|--4----------------|
B|--1---------1---1---1--|--1---------1---------|-------------------|


G|------------------------|------------------------|------------------------|
D|------------------------|------------------------|------------------------|
A|------------------------|------------------------|------------------------|
E|--3-----3------3-----3--|--4-----4------4-----4--|--3-----3------3-----3--|
B|------------------------|------------------------|------------------------|


G|-------------------------|------------------------|------------------------|
D|-------------------------|------------------------|------------------------|
A|--6--5--3--5----3--2-----|------------------------|------------------------|
E|----------------------4--|--3-----3------3-----3--|--4-----4------4-----4--|
B|-------------------------|------------------------|------------------------|


G|------------------------|----------------------------|
D|------------------------|----------------------------|
A|------------------------|--6--6-6-5--5-5-3--3-3------|
E|--3-----3------3-----3--|-----------------------6----|
B|------------------------|----------------------------|


Guitar Solo: (3:45)

G|----------------------------------|----------------------------------|
D|----------------------------------|----------------------------------|
A|----------------------------------|----------------------------------|
E|----------------------------------|--------------------------3-3-3-3-|
B|--1-1-1-1-1-1-1-1-1-1-1-1-1-1-1-1-|--1-1-1-1-3-3-3-3-4-4-4-4---------|


G|----------------------------------|----------------------------|
D|----------------------------------|----------------------------|
A|----------------------------------|----------------------------|
E|----------------------------------|----------------------------|
B|--1-1-1-1-1-1-1-1-1-1-1-1-1-1-1-1-|--1--1-1-1--1-1-1--1-1-1----|


G|----------------------------|----------------------------|
D|----------------------------|----------------------------|
A|----------------------------|----------------------------|
E|----------------------------|----------------------------|
B|--1-1-1-1-1-1-1-1-1---------|--1-1-1-1-1----1-1-1-1-1----|


G|----------------------------------|-------------------|------------------------|
D|----------------------------------|-------------------|------------------------|
E|----------------------------------|-------------------|------------------------|
A|--------------------------3-3-3-3-|--4----------------|------------------------|
B|--1-1-1-1-3-3-3-3-4-4-4-4---------|-------------------|--4--4----4--4--4--4----|


G|-------------------|
D|-------------------|
A|-------------------|
E|--6----------------|
B|-------------------|


Verse Riff: (4:04)

G|-------------------------------|
D|-------------------------------|
A|-------------------------------|
E|-------------------------------|
B|--2/4-4-4--4-4-4--4--4-4-4-4-4-|


G|---------------------------------|-------------------------------|
D|---------------------------------|-------------------------------|
A|---------------------------------|-------------------------------|
E|------------------------6-7-6----|-------------------------------|
B|--2/4-4-4--4-4-4-5-4-5--------8--|--2/4-4-4--4-4-4--4--4-4-4-4-4-|


G|-------------------------------------|-------------------------------|
D|-------------------------------------|-------------------------------|
A|-------------------------------------|-------------------------------|
E|-------------------------------------|-------------------------------|
B|--4/5--5-5-5-5-5/2--2-2-2-2-2/5--5-5-|--2/4-4-4--4-4-4--4--4-4-4-4-4-|


G|---------------------------------|----------------------------|----------------------rest--------|
D|---------------------------------|----------------------------|----------------------rest--------|
A|---------------------------------|----------------------------|----------------------rest--------|
E|------------------------6-7-6----|----------------3-3--3--3---|----------------6-----rest--------|
B|--2/4-4-4--4-4-4-5-4-5--------8--|--4-4-4-4--4-4--------------|--0-0-0-0--0-0--------rest--------|


Chorus: (4:31)

G|---------------------|
D|---------------------|
A|---------------------|
E|---------------------|
B|--4---------------4--|


G|-------------------|---------------------|----------------------|
D|-------------------|---------------------|----------------------|
A|-------------------|---------------------|-------0----1----3----|
E|-------------------|--2---------------2--|--1-------------------|
B|--2----------------|---------------------|----------------------|


G|---------------------|-------------------|-------------------|
D|---------------------|-------------------|-------------------|
A|---------------------|-------------------|-------------------|
E|---------------------|--6----------------|--2----------------|
B|--4---------------4--|-------------------|-------------------|


Bridge/Outro: (4:44)

G|------------------------|----------------------|------------------------|
D|------------------------|----------------------|------------------------|
A|------------------------|----------------------|------------------------|
E|--4-4-4--4--4--4--------|--0----0--0--0--------|--4-4-4--4--4--4--------|
B|------------------------|----------------------|------------------------|


G|-------------------------|------------------------|----------------------|
D|-------------------------|------------------------|----------------------|
A|-------------------------|------------------------|----------------------|
E|-------------------------|--4-4-4--4--4--4--------|--0----0--0--0--------|
B|--1--1-----1--1-----1----|------------------------|----------------------|


G|------------------------|--------------------|------------------------|
D|------------------------|--------------------|------------------------|
A|------------------------|--------------------|------------------------|
E|--2-2-2--2--2--2--------|--------------------|--4-4-4--4--4--4--------|
B|------------------------|--4--------5--------|------------------------|


G|----------------------|------------------------|-------------------------|
D|----------------------|------------------------|-------------------------|
A|----------------------|------------------------|-------------------------|
E|--0----0--0--0--------|--4-4-4--4--4--4--------|-------------------------|
B|----------------------|------------------------|--1--1-----1--1-----1----|


G|------------------------|----------------------|------------------------|
D|------------------------|----------------------|------------------------|
A|------------------------|----------------------|------------------------|
E|--4-4-4--4--4--4--------|--0----0--0--0--------|--4-4-4--4--4--4--------|
B|------------------------|----------------------|------------------------|


G|--------------------|--------------------------|--------------------------|
D|--------------------|--------------------------|--------------------------|
A|--------------------|--------------------------|--------------------------|
E|--2--------0--------|--4--4--4--4--4--4--4--4--|--0--0--0--0--0--0--0--0--|
B|--------------------|--------------------------|--------------------------|


G|--------------------------|----------------------------------|
D|--------------------------|----------------------------------|
A|--------------------------|----------------------------------|
E|--4--4--4--4--4--4--4--4--|----------------------------------|
B|--------------------------|--1-1-1-1-1-1-1-1-1-1-1-1-1-1-1-1-|


G|--------------------------|--------------------------|
D|--------------------------|--------------------------|
A|--------------------------|--------------------------|
E|--4--4--4--4--4--4--4--4--|--0--0--0--0--0--0--0--0--|
B|--------------------------|--------------------------|


G|--------------------------|----------------------------|
D|--------------------------|----------------------------|
A|--------------------------|----------------------------|
E|--2--2--2--2--2--2--2--2--|----------------------------|
B|--------------------------|--4-4-4-4-4----5-5-5-5-5----|


G|----------------------------------|----------------------------------|
D|----------------------------------|----------------------------------|
A|----------------------------------|----------------------------------|
E|--4-4-4-4-4-4-4-4-4-4-4-4-4-4-4-4-|--0-0-0-0-0-0-0-0-0-0-0-0-0-0-0-0-|
B|----------------------------------|----------------------------------|


G|----------------------------------|----------------------------------|
D|----------------------------------|----------------------------------|
A|----------------------------------|----------------------------------|
E|--4-4-4-4-4-4-4-4-4-4-4-4-4-4-4-4-|----------------------------------|
B|----------------------------------|--1-1-1-1-1-1-1-1-1-1-1-1-1-1-1-1-|


G|----------------------------------|----------------------------------|
D|----------------------------------|----------------------------------|
A|----------------------------------|----------------------------------|
E|--4-4-4-4-4-4-4-4-4-4-4-4-4-4-4-4-|--0-0-0-0-0-0-0-0-0-0-0-0-0-0-0-0-|
B|----------------------------------|----------------------------------|


G|----------------------------------|----------------------------|
D|----------------------------------|----------------------------|
A|----------------------------------|----------------------------|
E|--4-4-4-4-4-4-4-4-4-4-4-4-4-4-4-4-|--2-2-2-2-2----0-0-0-0-0----|
B|----------------------------------|----------------------------|


G|----------------------------------|----------------------------------|
D|----------------------------------|----------------------------------|
A|----------------------------------|----------------------------------|
E|--4-4-4-4-4-4-4-4-4-4-4-4-4-4-4-4-|--0-0-0-0-0-0-0-0-0-0-0-0-0-0-0-0-|
B|----------------------------------|----------------------------------|


G|----------------------------------|----------------------------------|
D|----------------------------------|----------------------------------|
A|----------------------------------|----------------------------------|
E|--4-4-4-4-4-4-4-4-4-4-4-4-4-4-4-4-|----------------------------------|
B|----------------------------------|--1-1-1-1-1-1-1-1-1-1-1-1-1-1-1-1-|


G|----------------------------------|----------------------------------|
D|----------------------------------|----------------------------------|
A|----------------------------------|----------------------------------|
E|--4-4-4-4-4-4-4-4-4-4-4-4-4-4-4-4-|--0-0-0-0-0-0-0-0-0-0-0-0-0-0-0-0-|
B|----------------------------------|----------------------------------|


G|----------------------------------|----------------------------------|
D|----------------------------------|----------------------------------|
A|----------------------------------|----------------------------------|
E|--2-2-2-2-2-2-2-2-2-2-2-2-2-2-2-2-|----------------------------------|
B|----------------------------------|--4-4-4-4-4-4-4-4-4-4-4-4-4-4-4-4-|


G|----------------------------------|----------------------------------|
D|----------------------------------|----------------------------------|
A|----------------------------------|----------------------------------|
E|--4-4-4-4-4-4-4-4-4-4-4-4-4-4-4-4-|--0-0-0-0-0-0-0-0-0-0-0-0-0-0-0-0-|
B|----------------------------------|----------------------------------|


G|----------------------------------|----------------------------------|
D|----------------------------------|----------------------------------|
A|----------------------------------|----------------------------------|
E|--4-4-4-4-4-4-4-4-4-4-4-4-4-4-4-4-|----------------------------------|
B|----------------------------------|--1-1-1-1-1-1-1-1-1-1-1-1-1-1-1-1-|


G|----------------------------------|----------------------------------|
D|----------------------------------|----------------------------------|
A|----------------------------------|----------------------------------|
E|--4-4-4-4-4-4-4-4-4-4-4-4-4-4-4-4-|--0-0-0-0-0-0-0-0-0-0-0-0-0-0-0-0-|
B|----------------------------------|----------------------------------|


G|----------------------------------|----------------------------------|
D|----------------------------------|----------------------------------|
A|----------------------------------|----------------------------------|
E|--4-4-4-4-4-4-4-4-4-4-4-4-4-4-4-4-|--2-2-2-2-2-2-2-2-2-2-2-2-2-2-2-2-|
B|----------------------------------|----------------------------------|


G|---------------------|--------------------||
D|---------------------|--------------------||
A|---------------------|--------------------||
E|--4---------------4--|--4-----------------||
B|---------------------|--------------------||


Tablature Legend
----------------
PM - palm mute
/ - slide up
\ - slide down

Almost there ...

Sign in to get your own page with links to favourite songs and more. You are just one click away...

Login with Facebook Login with Google