Log in

One click and you are in

Login with Facebook Login with Google

Why sign up and log in

Guitar Tabs Explorer
Epica tabs for Chasing the dragon

Guitar tabs with lyrics

Intro:
e|-----------------------------------|
A chord diagramBB|---------0---------------0---------|
A chord diagramG+G|-----2-----2---2-----0-----0---0---|
A chord diagramD MajorD|---2---2-----2-----2---2-----2-----|
A chord diagramA augmentedA|-0---------------0-----------------|
A chord diagramE MajorE|-----------------------------------|

-------------------------------------|
---------3-----------------3---------|
-----0-----0---0-------0-----0---0---|
---2---2-----2-------4---4-----5-----|
-3-----------------5-----------------|
-------------------------------------|
                  |________________|

Repeat but instead of ^^^^ end with

|----------|
|-------3--|
|-----0----|
|---4------|
|-5--------|
|----------|


Verse:
  Free    my mind Heal  my    scars
|-----------------------------------|
|---------0---------------0---------|
|-----2-----2---2-----0-----0---0---|
|---2---2-----2-----2---2-----2-----|
|-0---------------0-----------------|
|-----------------------------------|

A chord diagramE MajorE  -    rase the   past       Dark
|-------------------------------------|
|---------3-----------------3---------|
|-----0-----0---0-------0-----0---0---|
|---2---2-----2-------4---4-----5-----|
|-3-----------------5-----------------|
|-------------------------------------|

  Days    to  forget            And
|------------------------------------|
|---------0---------------0----------|
|-----2-----2---2-----0-----0---0----|
|---2---2-----2-----2---2-----2------|
|-0---------------0------------------|
|------------------------------------|

 Memories    to    last    in my
|-------------------------------------|
|---------3-----------------3---------|
|-----0-----0---0-------0-----0---0---|
|---2---2-----2-------4---4-----5-----|
|-3-----------------5-----------------|
|-------------------------------------|

  Heart
|------------------------------------|
|------------------------------------|
|---------0------------0-------------|
|-----4------------4-----4---4-------|
|---2---2--------2---2-----2---------|
|-0------------0---------------------|

  Free    me  now
|------------------------------------|
|------------------------------------|
|---------0---------0-------0--------|
|-----4-----------4-------4----------|
|---2---2-------2-------2------------|
|-0-----------3-------2--------------|

  Make  me    forget    and   for-
|-----------------------------------|
|---------0---------------0---------|
|-----2-----2---2-----0-----0---0---|
|---2---2-----2-----2---2-----2-----|
|-0---------------0-----------------|
|-----------------------------------|

  give  there's no  use          To
|-------------------------------------|
|---------3-----------------3---------|
|-----0-----0---0-------0-----0---0---|
|---2---2-----2-------4---4-----5-----|
|-3-----------------5-----------------|
|-------------------------------------|

  Go      on  and live
|-----------------------------------|
|---------0---------------0---------|
|-----2-----2---2-----0-----0---0---|
|---2---2-----2-----2---2-----2-----|
|-0---------------0-----------------|
|-----------------------------------|

  Show    me  the   way     to    the
|-------------------------------------|
|---------3-----------------3---------|
|-----0-----0---0-------0-----0---0---|
|---2---2-----2-------4---4-----5-----|
|-3-----------------5-----------------|
|-------------------------------------|

  Sun
|------------------------------------|
|------------------------------------|
|---------0------------0-------------|
|-----4------------4-----4---4-------|
|---2---2--------2---2-----2---------|
|-0------------0---------------------|

  Heal    my  scars
|------------------------------------|
|------------------------------------|
|---------0---------0-------0--------|
|-----4-----------4-------4----------|
|---2---2-------2-------2------------|
|-0-----------3-------2--------------|


Chorus: (you pick it like an arpeggio)
A chord diagramE minorEm        A chord diagramG+G        A chord diagramF# minorF#m   A chord diagramA5A5
Nothing will be forever gone
A chord diagramE minorEm        A chord diagramG+G       A chord diagramF# minorF#m        A chord diagramA5A5
Memories will stay and find their way
A chord diagramE minorEm                     A chord diagramG+G
What goes around will come around
A chord diagramF# minorF#m              A chord diagramA5A5
Don’t deny your fears
                    A chord diagramE minorEm
So let them go and fade into light
A chord diagramG+G                  A chord diagramE minorEm
Give up the fight here


Verse


Chorus

Then the electric comes in: (This isn't completely accurate)

  Poison is slowly    seeping through my veins
|---------------------------------------------------|
|---------------------------------------------------|
|---------------------------------------------------|
|-14---------9-9-9-9------6-----------------5-------|
|-14---------9-9-9-9------6-----------------5-------|
|-12---------7-7-7-7------4-----------------3-------|
              |-----|
                P.M

  Stealing the only     dignity in me
|--------------------------------------------------|
|--------------------------------------------------|
|--------------------------------------------------|
|-14------------9-9-9-9------6---------------------|
|-14------------9-9-9-9------6---------------------|
|-12------------7-7-7-7----4-----------------------|

I pick them up and let them fall...
|--------------------------------------------------|
|--------------------------------------------------|
|--------------------------------------------------|
|-9-9---9-9-9-9------9-9-9-9-11-11-11-12-12-12-----|
|-9-9---9-9-9-9------9-9-9-9-11-11-11-12-12-12-----|
|-7-7---7-7-7-7------7-7-7-7-9--9--9--10-10-10-----| x2

I don't know the next bit...

The chorus changes to

A chord diagramBB A chord diagramD MajorD A chord diagramC#C# A chord diagramE MajorE
ⓘ Guitar tab for 'Chasing The Dragon' by Epica, a symphonic metal band formed in 2003 from Reuver, Netherlands. Epica is known for their smooth metal music.

Almost there ...

Sign in to get your own page with links to favourite songs and more. You are just one click away...

Login with Facebook Login with Google