Log in

One click and you are in

Login with Facebook Login with Google

Why sign up and log in

Guitar Tabs Explorer
Eowyn tabs for Silent screams

Guitar tabs

Tablature 🏷Legend
----------------
(n) - ghost note
> - accentuded note
PH - pitch harmonic
/ -  slide into from below or out of upwards
~ - vibrato
< - fade in


intro start

A chord diagramD MajorD||--------------------------|
A chord diagramA augmentedA||--------------------------|
A chord diagramFF||-----------(7)--(7)--(7)--|
A chord diagramC majorC||--------------------------|
A chord diagramG+G||--4--4--4---5----5----5---|
A chord diagramC majorC||--------------------------|


--------------------------|
--------------------------|
-----------(7)--(7)--(7)--|
--------------------------|
--4--4--4---5----5----5---|
--------------------------|


------------------|
------------------|
--------(7)--(7)--|
------------------|
--4--4---5----5---|
------------------|

--------------------------|
--------------------------|
-----------(7)--(7)--(7)--|
--------------------------|
--4--4--4---5----5----5---|
--------------------------|


--------------------------|
--------------------------|
-----------(7)--(7)--(7)--|
--------------------------|
--4--4--4---5----5----5---|
--------------------------|


------------------|
------------------|
--------(7)--(7)--|
------------------|
--4--4---5----5---|
------------------|


--------------------------|
--------------------------|
-----------(7)--(7)--(7)--|
--------------------------|
--4--4--4---5----5----5---|
--------------------------|


--------------------------|
--------------------------|
-----------(7)--(7)--(7)--|
--------------------------|
--4--4--4---5----5----5---|
--------------------------|


------------------|
------------------|
--------(7)--(7)--|
------------------|
--4--4---5----5---|
------------------|


--------------------------|
--------------------------|
-----------(7)--(7)--(7)--|
--------------------------|
--4--4--4---5----5----5---|
--------------------------|


--------------------------|--------------|
--------------------------|--------------|
-----------(7)--(7)--(7)--|--------------|
--------------------------|--------------|
--4--4--4---5----5----5---|--4-----------|
--------------------------|--------------|


-----------------|-----------------|
-----------------|-----------------|
--6----6--7------|--6----6--7------|
-----------------|-----------------|
--4----4--5------|--4----4--5------|
-----------------|-----------------|


---------------|-----------------|
---------------|-----------------|
--6--6--6--/7--|--6----6--7------|
---------------|-----------------|
--4--4--4--/5--|--4----4--5------|
---------------|-----------------|


-----------------|---------------|
-----------------|---------------|
--6----6--7------|--6--6--6--/7--|
-----------------|---------------|
--4----4--5------|--4--4--4--/5--|
-----------------|---------------|


-----------------|-----------------|
-----------------|-----------------|
--6----6--7------|--6----6--7------|
-----------------|-----------------|
--4----4--5------|--4----4--5------|
-----------------|-----------------|


---------------|-----------------|
---------------|-----------------|
--6--6--6--/7--|--6----6--7------|
---------------|-----------------|
--4--4--4--/5--|--4----4--5------|
---------------|-----------------|


-----------------|---------------|
-----------------|---------------|
--6----6--7------|--6--6--6--/7--|
-----------------|---------------|
--4----4--5------|--4--4--4--/5--|
-----------------|---------------|




verse 1 (and 3) start


-------------------|-------------------|
-------------------|-------------------|
-------------------|-------------------|
-------------------|-------------------|
--4--4--4--5~------|--4--4--4--5~------|
-------------------|-------------------|


-------------|-------------------|
-------------|-------------------|
-------------|-------------------|
-------------|-------------------|
--5--4--2----|--4--4--4--5~------|
-------------|-------------------|


                                 PH
-------------------|----------------|
-------------------|----------------|
-------------------|----------------|
-------------------|-----------<>3--|
--4--4--4--5~------|--5--4--2-------|
-------------------|----------------|


-------------------|-------------------|
-------------------|-------------------|
-------------------|-------------------|
-------------------|-------------------|
--4--4--4--5~------|--4--4--4--5~------|
-------------------|-------------------|


-------------|-------------------|
-------------|-------------------|
-------------|-------------------|
-------------|-------------------|
--5--4--2----|--4--4--4--5~------|
-------------|-------------------|


                                 PH
-------------------|----------------|
-------------------|----------------|
-------------------|----------------|
-------------------|-----------<>3--|
--4--4--4--5~------|--5--4--2-------|
-------------------|----------------|



Chorus start


-----------------|-----------------|
-----------------|-----------------|
-----------------|-----------------|
--4----4----4----|--4----4----4----|
--4----4----4----|--4----4----4----|
--4----4----4----|--4----4----4----|


-----------------|-----------------|
-----------------|-----------------|
-----------------|-----------------|
--4----4----4----|--4----4----4----|
--4----4----4----|--4----4----4----|
--4----4----4----|--4----4----4----|


-----------------|-----------------|
-----------------|-----------------|
-----------------|-----------------|
--4----4----4----|--4----4----4----|
--4----4----4----|--4----4----4----|
--4----4----4----|--4----4----4----|


-----------------|-----------------|
-----------------|-----------------|
--6----6----6----|--6----6----6----|
--6----6----6----|--6----6----6----|
--4----4----4----|--4----4----4----|
-----------------|-----------------|


-----------------|-----------------|
-----------------|-----------------|
--6----6----6----|--6----6----6----|
--6----6----6----|--6----6----6----|
--4----4----4----|--4----4----4----|
-----------------|-----------------|


-----------------|-----------------|
-----------------|-----------------|
--6----6----6----|--6----6----6----|
--6----6----6----|--6----6----6----|
--4----4----4----|--4----4----4----|
-----------------|-----------------|


-----------------|-----------------|
-----------------|-----------------|
-----------------|-----------------|
--4----4----4----|--4----4----4----|
--4----4----4----|--4----4----4----|
--4----4----4----|--4----4----4----|


-----------------|-----------------|
-----------------|-----------------|
-----------------|-----------------|
--4----4----4----|--4----4----4----|
--4----4----4----|--4----4----4----|
--4----4----4----|--4----4----4----|


-----------------|-----------------|
-----------------|-----------------|
-----------------|-----------------|
--4----4----4----|--4----4----4----|
--4----4----4----|--4----4----4----|
--4----4----4----|--4----4----4----|


Bridge


  >  >  >  >          >  >  >  >
-------------------|-------------------|
-------------------|-------------------|
-------------------|-------------------|
-------------------|-------------------|
--4--4--4--5~------|--4--4--4--5~------|
-------------------|-------------------|


  >  >  >       >  >  >  >
-------------|-------------------|
-------------|-------------------|
-------------|-------------------|
-------------|-------------------|
--5--4--2----|--4--4--4--5~------|
-------------|-------------------|


  >  >  >  >          >  >  >
-------------------|-------------|
-------------------|-------------|
-------------------|-------------|
-------------------|-------------|
--4--4--4--5~------|--5--4--2----|
-------------------|-------------|


verse 2 start

(alternate with speeds)

  PM  PM        PM  PM        PM  PM
-------------|-------------|-------------|
-------------|-------------|-------------|
-------------|-------------|-------------|
--0---0------|--0---0------|--0---0------|
--0---0------|--0---0------|--0---0------|
--0---0------|--0---0------|--0---0------|


  PM  PM                      PM  PM
-------------|-------------|-------------|
-------------|-------------|-------------|
-------------|-------------|-------------|
--0---0------|-------------|--0---0------|
--0---0------|-------------|--0---0------|
--0---0------|--0---0--2---|--0---0------|


  PM  PM        PM  PM        PM  PM
-------------|-------------|-------------|
-------------|-------------|-------------|
-------------|-------------|-------------|
--0---0------|--0---0------|--0---0------|
--0---0------|--0---0------|--0---0------|
--0---0------|--0---0------|--0---0------|


-------------|------||
-------------|------||
-------------|------||
-------------|------||
-------------|------||
--0---0--2---|------||

Return to chorus

Almost there ...

Sign in to get your own page with links to favourite songs and more. You are just one click away...

Login with Facebook Login with Google