Log in

One click and you are in

Login with Facebook Login with Google

Why sign up and log in

Guitar Tabs Explorer
The Envy Corps guitar tabs for Rooftop

Guitar tabs

INTRO:

e-----------|-----------|-----------|-----------|-----------|-----------|-----------|-----------|
B-----2-----|-----2-----|-----3-----|-----3-----|-----2-----|-----2-----|-----3-----|-----3-----|
G---2-----2-|---2-----2-|---2-----2-|---2-----2-|---2-----2-|---2-----2-|---2-----2-|---2-----2-|
D-----------|-----------|-----------|-----------|-----------|-----------|-----------|-----------|
A-0-----0---|-0-----0---|-----------|-----------|-0-----0---|-0-----0---|-----------|-----------|
E-----------|-----------|-2-----2---|-2-----2---|-----------|-----------|-2-----2---|-2-----2---|
Verse 1

e-----------|-----------|-----------|-----------|-----------|-----------|-----------|-----------|
B-----2-----|-----2-----|-----3-----|-----3-----|-----2-----|-----2-----|-----3-----|-----3-----|
G---2-----2-|---2-----2-|---2-----2-|---2-----2-|---2-----2-|---2-----2-|---2-----2-|---2-----2-|
D-----------|-----------|-----------|-----------|-----------|-----------|-----------|-----------|
A-0-----0---|-0-----0---|-----------|-----------|-0-----0---|-0-----0---|-----------|-----------|
E-----------|-----------|-2-----2---|-2-----2---|-----------|-----------|-2-----2---|-2-----2---|

When I see your picture my heart grows a fissure. I guess that I get this way.


e-----------|-----------|-----------|-----------|-----------|-----------|-----------|-----------|
B-----2-----|-----2-----|-----3-----|-----3-----|-----2-----|-----2-----|-----3-----|-----3-----|
G---2-----2-|---2-----2-|---2-----2-|---2-----2-|---2-----2-|---2-----2-|---2-----2-|---2-----2-|
D-----------|-----------|-----------|-----------|-----------|-----------|-----------|-----------|
A-0-----0---|-0-----0---|-----------|-----------|-0-----0---|-0-----0---|-----------|-----------|
E-----------|-----------|-2-----2---|-2-----2---|-----------|-----------|-2-----2---|-2-----2---|

I  need  a   rooftop to  look from or jump off.   I guess that I get this way.


Chorus
e-----------|-----------|-----------|-----------|-----------|-----------|-----------|-----------|
A-----3-----|-----2-----|-----3-----|-----3-----|-----3-----|-----3-----|-----3-----|-----3-----|
D---4-----4-|---2-----2-|---1-----1-|---1-----1-|---2-----2-|---2-----2-|---1-----1-|---1-----1-|
G-----------|-----------|-----------|-----------|-----------|-----------|-----------|-----------|
B-2-----2---|-0-----0---|-----------|-----------|-----------|-----------|-----------|-----------|
E-----------|-----------|-0-----0---|-0-----0---|-2-----2---|-2-----2---|-0-----0---|-0-----0---|

What's  the    problem   dear?            Are you feeling             unloved

e-----------|-----------|-----------|-----------|
A-----3-----|-----2-----|-----3-----|-----3-----|
D---4-----4-|---2-----2-|---1-----1-|---1-----1-|
G-----------|-----------|-----------|-----------|
B-2-----2---|-0-----0---|-----------|-----------|
E-----------|-----------|-0-----0---|-0-----0---|

That's what  I    was     most    afraid of


2nd Verse

e-----------|-----------|-----------|-----------|-----------|-----------|-----------|-----------|
B-----2-----|-----2-----|-----3-----|-----3-----|-----2-----|-----2-----|-----3-----|-----3-----|
G---2-----2-|---2-----2-|---2-----2-|---2-----2-|---2-----2-|---2-----2-|---2-----2-|---2-----2-|
D-----------|-----------|-----------|-----------|-----------|-----------|-----------|-----------|
A-0-----0---|-0-----0---|-----------|-----------|-0-----0---|-0-----0---|-----------|-----------|
E-----------|-----------|-2-----2---|-2-----2---|-----------|-----------|-2-----2---|-2-----2---|

 I  need  a  new arm  to  slice up or cut off     I guess that I get this way.


e-----------|-----------|-----------|-----------|-----------|-----------|-----------|-----------|
B-----2-----|-----2-----|-----3-----|-----3-----|-----2-----|-----2-----|-----3-----|-----3-----|
G---2-----2-|---2-----2-|---2-----2-|---2-----2-|---2-----2-|---2-----2-|---2-----2-|---2-----2-|
D-----------|-----------|-----------|-----------|-----------|-----------|-----------|-----------|
A-0-----0---|-0-----0---|-----------|-----------|-0-----0---|-0-----0---|-----------|-----------|
E-----------|-----------|-2-----2---|-2-----2---|-----------|-----------|-2-----2---|-2-----2---|

 My scars are crooked, my scars turn blue.       I guess that I get this way.


Chorus
e-----------|-----------|-----------|-----------|-----------|-----------|-----------|-----------|
A-----3-----|-----2-----|-----3-----|-----3-----|-----3-----|-----3-----|-----3-----|-----3-----|
D---4-----4-|---2-----2-|---1-----1-|---1-----1-|---2-----2-|---2-----2-|---1-----1-|---1-----1-|
G-----------|-----------|-----------|-----------|-----------|-----------|-----------|-----------|
B-2-----2---|-0-----0---|-----------|-----------|-----------|-----------|-----------|-----------|
E-----------|-----------|-0-----0---|-0-----0---|-2-----2---|-2-----2---|-0-----0---|-0-----0---|

What's  the    problem   dear?            Are you feeling             unloved


e-----------|-----------|-----------|-----------|-----------|-----------|-----------|-----------|
A-----3-----|-----2-----|-----3-----|-----3-----|-----3-----|-----3-----|-----3-----|-----3-----|
D---4-----4-|---2-----2-|---1-----1-|---1-----1-|---1-----1-|---1-----1-|---1-----1-|---1-----1-|
G-----------|-----------|-----------|-----------|-----------|-----------|-----------|-----------|
B-2-----2---|-0-----0---|-----------|-----------|-----------|-----------|-----------|-----------|
E-----------|-----------|-0-----0---|-0-----0---|-0-----0---|-0-----0---|-0-----0---|-0-----0---|

That's what  I    was     most    afraid of


e-----------|-----------|-----------|-----------|-----------|-----------|-----------|-0---------|
A-----3-----|-----2-----|-----3-----|-----3-----|-----3-----|-----3-----|-----3-----|-----------|
D---4-----4-|---2-----2-|---1-----1-|---1-----1-|---2-----2-|---2-----2-|---1-----1-|-----------|
G-----------|-----------|-----------|-----------|-----------|-----------|-----------|-----------|
B-2-----2---|-0-----0---|-----------|-----------|-----------|-----------|-----------|-----------|
E-----------|-----------|-0-----0---|-0-----0---|-2-----2---|-2-----2---|-0-----0---|-----------|

That's what  I    was     most    afraid of ~   ~   ~   ~   ~   ~   ~   ~   ~   ~   ~


e-----------|-----------|-----------|-----------|-------||
A-----3-----|-----2-----|-----3-----|-----3-----|-2-----||
D---4-----4-|---2-----2-|---1-----1-|---1-----1-|-2-----||
G-----------|-----------|-----------|-----------|-------||
B-2-----2---|-0-----0---|-----------|-----------|-0-----||
E-----------|-----------|-0-----0---|-0-----0---|-------||

That's what  I    was     most    afraid of

↓ Add and view comments below ↓

What do you think about this song and these tabs?

Add your comments, questions, rant or a thumbs up below.

Almost there ...

Sign in to get your own page with links to favourite songs and more. You are just one click away...

Login with Facebook Login with Google