We Don't Have To Be Friends by Enuff Znuff

We Don't Have To Be Friends chords by Enuff Znuff

Guitar chords with lyrics

Song name: We Don't Have to be Friends
Artist name: Enuff Z'nuff
Transcriber: Brent Rhodes//brhodes1@bellsouth.net
This song comes from Enuff Z'nuff's seventh U.S. release
entitled "Seven", Track #11

	EADGBE EADGBE
	2xx232 x21202
	(D/F#)  (B7)

Piano intro transcribed on guitar:

Riff 1
 [Em]				  [D]	[B]	2x
E-----0---0---0---0---0--0--0---|--------0------]
B-----12--12--12--10--8--7--8---|--7--8--5--4---]
G-----12--12--12--11--9--7--7---|--7--7--4--4---]
D-------------------------------|--0--0---------]
A-------------------------------|--------2--2---]
E--0----------------------------|---------------]


3rd time: This part should be played together w/ riff 1
 [Em]				  [D]	 [B]
E-----0---0---0---0---0---0---0--|--------0-----]
B-----12--12--12--13--12--10--12-|--7--8--5--4--]
G-----12--12--12--12--12--11--12-|--7--7--4--4--]
D--------------------------------|--0--0--------]
A--------------------------------|--------2--2--]
E--0-----------------------------|--------------]

Fill 1
 [Em]
E---------------------------------------------------|--0----]
B----------5----------------------------------------|--0----]
G----2-/-4---4--4h5p4p2-2h4p2p0-0---0---------------|--0----]
D---------------------------------4---4-2-0---------|--2----]
A-------------------------------------------2-0-----|--2----]
E-0---------------------------------------------3-2-|--0----]



[Em]			[B7]
Do you remember when we ....

[Em]			[A]
The way you wore .....

[Am]
How we drink ....

[B7]				[Em riff1 1X]
and got it on your ....

Every little bit ...
Has turned to .....
But I'll take ....		[riff1 1x ended with Em chord]
Cuz I'd go ....


[G]			[D/F#]
We don't have to be ....

[Em]				[Bm]
long. We don't have ....

[C]		[G]
on. Just say I ...

[C] 		[B7]
Cuz that's ....

			[Em riff1 2x]
We don't have to ...

We don't have to ....



When you need me I'll be right .....



* Take note of the chords above the intro tab. An accompanying
	instrument should not play an Em all the way through.

Find guitar tabs and chords

A B C D E F G H I J K L M N O P Q R S T U V W X Y Z #