Time To Let You Go by Enuff Znuff

Time To Let You Go chords by Enuff Znuff

Guitar chords with lyrics

Song name: Time to Let You Go
Artist's name: Enuff Z'nuff
Transriber: Brent Rhodes//brhodes1@bellsouth.net
This song comes from Enuff Z'nuff's second album "Strength" Track14
Words and Music: Donnie Vie
THIS SONG IS AWESOME!!!

F#maj w/ Bb - 	this is an unorthodox chord; the Bb note is to
EADGBE		compensate for a bass note that is essential
X1432X		to the melody of the chorus.

Strum brightly

band tacet					[E]	           *
	You've lost that ....
1.......2...............3.......4...............1.......2.......3.......4

						[F#m]
	I'm only 	....
1.......2...............3.......4...............1.......2.......3.......4

						[A]
	My god your face I'm ....
1.......2...............3.......4...............1.......2.......3.......4

[B7]						[E]		[Am w/fill1]
But I see it's time ....
1.......2.......3.......4.......................1.......2.......3.......4


[E (hold 4 beats)]			[E (cont. as before)]
	You don't dig ....
1.......2.......3.......4...............1.......2.......3........4.......

			  	[F#m]
We used to make ....

			  	[A]
I've cried so .....

[B7]				[E] [Am (w/fill1)]
I see it's time to ....



[E][B7 (2nd time)]		[A]	[Am]
It ain't no good if it don't ....

[E]
It still felt ....

[F#maj]      	[F#maj (w/Bb root)]
If you feel you .....

[F#m]
go where ....



[Am]					[E]
{Take everything ...
{be______________________.
				[F#m]
Leave no reminders ....

				[A (w/fill2)]
That at one time ...

[B7]				[E] [Am (w/fill3)]
But now it's time to ....





[F#m]				[A (w/fill4)]
That at one time ...

[B7]				[E]
But now it's time ....

[F#maj]				[A]
That at one time man .....

[B7]				[E]
But now it's time ....

[F#maj]				[A (w/fill5)]
That at one .....

[B7]				[E] 	[Am (w/fill3)] [E]
But now it's time to .....


A slide is used on these guitar fills along with some fuzz effects.
Random guitar slides within the chorus were omitted for the sake
of brevity. They're not that hard to figure out. The fills below
tastefully embellish the song and are indispensable to the song's
nostalgic quality.

 Fill 1
 [Am]					[E]
 E-----------------------------------|------------------]
 B-----------------------------------|------------------]
 G---------------------5-\-4-\-2-----|------------------]
 D--------------------------------4-/--6~~~~------------]
 A-----------------------------------|------------------]
 E-----------------------------------|------------------]

 Fill 2
 [A]       			[B7]
 E-----------------------------------|------------------]
 B-----------------------------7-----|------------------]
 G--------------------------------4/6-\4~~~~------------]
 D---------------------4-/-6------4/6-\4~~~~------------]
 A-----------------------------------|------------------]
 E-----------------------------------|------------------]

 Fill 3
 [Am]					[B7]
 E-----------------------------------|------------------]
 B-----------------------------------|------------------]
 G-----------------------------------|------------------]
 D---------------------5-\-4-\-2-----|------------------]
 A--------------------------------3-\-2~~~~~------------]
 E-----------------------------------|------------------]

 Fill 4
 [A]					[B7]
 E-----------------------------------|------------------]
 B---------------10-\-9--------------|------------------]
 G----------------------9/11-\-9-----|------------------]
 D---------------------------------(6)-/-9~~~-----------]
 A-----------------------------------|------------------]
 E-----------------------------------|------------------]

 Fill 5
 [A]
 E-----------------------------------|-------------------]
 B-----------------------------------|-------------------]
 G------------------------9 9/11-9---|-------------------]
 D---------------------------------11-\-9~~~-------------]
 A-----------------------------------|-------------------]
 E-----------------------------------|-------------------]

Find guitar tabs and chords

A B C D E F G H I J K L M N O P Q R S T U V W X Y Z #