Freak by Enuff Znuff

Freak tab by Enuff Znuff

Guitar tabs

T1: musician_girl@hotmail.com, Enuff Z'Nuff, "Freak", June '99

S1: Um...well, this is the first single off of Enuff Z'Nuff's new
album., Intro     D           Play 4x
-------|--2--2-2--2--2--2-2--2--2-2--2--|
-------|--3--3-3--3--3--3-3--3--3-3--3--|
--%----|--2--2-2--2--2--2-2--2--2-2--2--|
-------|--0--0-0--0--0--0-0--0--0-0--0--|
-------|--------------------------------|
-------|--------------------------------|

INTRO and CHORUS
Let D string ring
 D     G            D     G
----------------------------------|----------------------------------|
----------------------------------|----------------------------------|
--5h7-5h7-5-7b(9)r(7)-5--4h5p42--|--5h7-5h7-5-7b(9)r(7)-5--4h5p42--|
--0---0---0-0---------0--0--------|--0---0---0-0---------0--0--------|
----------------------------------|----------------------------------|
----------------------------------|----------------------------------|

 D/F#   G            E/G#         A
----------------------------------|-----------------------------------------------|
----------------------------------|-----------------------------------------------|
--5h7-5h7-5-7b(9)r(7)-5--4h5p42--|--4-2-4b(5)r(4)-4-2h4p2---11-12-11-12-11-12-11-|
--0---0---0-0---------0--0--------|--0-0-0---------0-0-------0--0--0--0--0--0--0--|
----------------------------------|-----------------------------------------------|
----------------------------------|-----------------------------------------------|

VERSE D     G     D     G      D    G
E    A
------2---------3--|-------2----------3--|-------2---------3---|------0-------0--|
------3---------3--|-------3----------3--|-------3---------3---|------0-------2--|
----2-2------0--0--|----2--2--------0-0--|----2--2-------0-0---|--1---1---2---2--|
--0---0------------|--0----0------0------|--0----0-------------|--2-2-----2-2-2--|
-----------2-------|------------2--------|-----------2---------|--2-------0------|
-----------3-------|------------3--------|-----------3---------|--0--------------|
 All alone  with nowhere to call home There's nothing waiting...

PRE-CHORUS
 G      A        D           G      A
       D   A
---------------------------|---------------------|--------------------------------|--------------|
---------------------------|--7------------------|--------------------------------|--7-----------|
--4----4------6-----6------|---------------------|--4----4------6-----6-----------|---------6----|
---------------------------|--4------------------|--------------------------------|--4-----------|
--2----2------4-----4------|--5------------------|--2----2------4-----4-----------|--5------4----|
--3----3------5-----5------|---------------------|--3----3------5-----5-----------|---------5----|
Everything is beautiful and shines in its own way  The prettier the
uglier they'll be    and a

 G      A         B  A D/G#    G
D (go to CHORUS)
------------------------------|------------------|--3---------------|-----|
------------------------------|------------------|--3---------------|-----|
--4----4------6-----6---------|-------6---7------|--0---------------|-----|
------------------------------|--9---------------|--0---------------|-----|
--2----2------4-----4---------|--9----4---5------|------------------|-----|
--3----3------5-----5---------|--7----5---4------|--3---------------|-----|
 likely substitute for love is always apathy  you see   I'm the
Freak

B1: Submit

Find guitar tabs and chords

A B C D E F G H I J K L M N O P Q R S T U V W X Y Z #