Clown On The Town by Enuff Znuff

Clown On The Town chords by Enuff Znuff

Guitar chords with lyrics

!From: Brent Rhodes


Songname: Clown on the Town
Artist: Enuff Z'nuff
Transcriber: Brent Rhodes//brhodes1@bellsouth.net
Roving Gypsies Music
This song comes from the album "Seven" Track #8
Words and Music: Donnie Vie/Chip Z'nuff
My goal is to have every released Enuff Z'nuff song transcribed by
the end of 1998.

Country slacker rhythm
intro begins with a fiddle fill
		[G]		[A]
1...2...3...4...1...2...3...4...1...2...3...4...

[Dw/fill1]	[A]		[D]
				   All those tears ....
1.......2........3.......4.......1...2............3........4.......

[G]		[A]
cried. 		  And all those ...
1...2...3...4...1...2...........3........4.......

[D]		[D7]
side.		  You can ....
1...2...3...4...1...2.......3.......4.......

[G]	[A]				[D]
me.	But still as ....
	[D7]
I can 	see. ....
[G]			[Em]
troubled and ....
[G]			[Em]
monsters	on your.....



I'm just a
[D]			[A]
clown. A clown on .....
[D w/fill 1]	[A] [D]
down.


(Repeat progression throughout)

All those times you've .....




The notes in parentheses are the actual pitch caused by the bend.
This may be in conflict with traditional tab notation, but I
find it efficient and understandable./=slide up;\=slide down;if you
come across an x, it does not symbolize a muted string. It represents
the unknown fret origin of a quick slide up or down the neck.

				[G]
E-----------------------------|---------------------------------------|
B--------------------15-------|-----------------15--15b(17)r15--------|
G-----------12-14/16----16-14-|-11b(12)~~~--x/12--12-----------12-11--|
D--12-14/16-------------------|---------------------------------------|
A-----------------------------|---------------------------------------|
E-----------------------------|---------------------------------------|

 [A]					[D]
E-----------------------------------|--------14-17-19-19b(22)r19-17-
B-----------------------------------|--15--17-----------------------
G--------------------------11-12/14-|----14-------------------------
D-14\12/14b(16)r14~~--12/14---------|-------------------------------
A-----------------------------------|-------------------------------
E-----------------------------------|-------------------------------

		[D7]
E-15-14-15-|-b19r17-15-14------------------------|
B----------|-----------------15b(17)r15~~~------15---|
G----------|-------------------------------14/16--16-|
D----------|-----------------------------------------|
A----------|-----------------------------------------|
E----------|-----------------------------------------|

 [G]				 [A]
E---------------------------------|------------------------------17-17-|
B-15b(17)~~~--15--15~~~------15---|-17b(19)~~~-17p15h17~~~-17/19-------|
G---------------16------14/16--16-|------------------------------------|
D---------------------------------|------------------------------------|
A---------------------------------|------------------------------------|
E---------------------------------|------------------------------------|
						intro progression w/
 [D]			 [D7] 			fiddle begins
E-17b(19)~~~--17--17~~~---|----17-17/19-19/22-24b(26)r24-20~~---]
B---------------19-----17-/-19----------------------------------]
G-------------------------|-------------------------------------]
D-------------------------|-------------------------------------]
A-------------------------|-------------------------------------]
E-------------------------|-------------------------------------]


When you're sad and .....


{The rest of the song is more or less repetitive, listen to the song}}


Fill1
 [D]			[A]			  [D]
E------10----10----10------------8~~~-------------|--------|
B-x/10----10----10------8b(10)~~~~~----(10)r8---6-|--7-----|
G-----------------------------------------------6-|--7-----|
D-----------------------------------------------6-|--7-----|
A-------------------------------------------------|--5-----|
E-------------------------------------------------|--------|

Find guitar tabs and chords

A B C D E F G H I J K L M N O P Q R S T U V W X Y Z #