Log in

One click and you are in

Login with Facebook Login with Google

Why sign up and log in

Guitar Tabs Explorer
Enter Shikari bass tabs for The great unknown

Bass tabs

Tuning: C Tuning (C F Bb Eb)

🎸 Intro:

F|----------------------------------------------------------------------|
C|----------------------------------------------------------------------|
G|-----------------------4-4-4-5-5-7-7-7-----------2-2-2-4-4-4-4-4------|
C|-5-5-5-5-5-5-5-5-4-4-4-----------------5-5-5-5-5----------------------|
🎸 Verse 1:

F|----------------------------------------------------------------------|
C|---5--8-8-8-8-7-7-7-7---3-3--5-5-----8/13-12-10-8-10-10-10h12-10-8----|
G|----------------------------------------------------------------------|
C|----------------------------------------------------------------------|

F|----------------------------------------------------------------------|
C|---5--8-8-8-8-7-7-7-7---5-5--3-5--------3-3-3-3-5-5-5-5---------------|
G|-------------------------------------3-------------------3--3-3-3-1---|
C|----------------------------------------------------------------------|

F|----------------------------------------------------------------------|
C|---5--8-8-8-8-7-7-7-7---3-3--5-5--------------------------------------|
G|----------------------------------------------------------------------|
C|----------------------------------------------------------------------|

F|----------------------------------------------------------------------|
C|---5--8-8-8-8-7-7-7-7---5-5--3-5--------3-3-3-3-5-5-5-5---------------|
G|-------------------------------------3--------------------------------|
C|----------------------------------------------------------------------|

🎸 Chorus:

F|----------------------------------------------------------------------------------------------------|
C|----------------------------------------------------------------------------------------------------|
G|-3--3-3-3-6-5----------------5--5--5-5-6--6--6--6-3--3-3-3-6-5----------------5--5--5-5-6--6--6--6--|
C|--------------6---6---6---6------------------------------------6---6---6---6------------------------|

F|----------------------------------------------------------------------------------------------------|
C|----------------------------------------------------------------------------------------------------|
G|-3--3-3-3-6-5-----------6-5--3----3----1-3-1-3-1--3--3-3-3-6-5----------------5--5--5-5-6-----6-----|
C|--------------8--8--8-8----------------------------------------6---6---6---6------------------------|

🎸 Verse 2:

F|----------------------------------------------------------------------|
C|---5--8-8-8-8-7-7-7-7---3-3--5-5-----8/13-12-10-8-10-10-10h12-10-8----|
G|----------------------------------------------------------------------|
C|----------------------------------------------------------------------|

F|----------------------------------------------------------------------|
C|---5--8-8-8-8-7-7-7-7---5-5--3-5--------3-3-3-3-5-5-5-5---------------|
G|-------------------------------------3-------------------3--3-3-3-1---|
C|----------------------------------------------------------------------|

F|----------------------------------------------------------------------|
C|---5--8-8-8-8-7-7-7-7---3-3--5-5-----8/13-12-10-8-10-10-10h12-10-8----|
G|----------------------------------------------------------------------|
C|----------------------------------------------------------------------|

F|----------------------------------------------------------------------|
C|---5--8-8-8-8-7-7-7-7---5-5--3-5--------3-3-3-3-5-5-5-5---------------|
G|-------------------------------------3--------------------------------|
C|----------------------------------------------------------------------|

🎸 Chorus:

F|----------------------------------------------------------------------------------------------------|
C|----------------------------------------------------------------------------------------------------|
G|-3--3-3-3-6-5----------------5--5--5-5-6--6--6--6-3--3-3-3-6-5----------------5--5--5-5-6--6--6--6--|
C|--------------6---6---6---6------------------------------------6---6---6---6------------------------|

F|----------------------------------------------------------------------------------------------------|
C|----------------------------------------------------------------------------------------------------|
G|-3--3-3-3-6-5-----------6-5--3----3----1-3-1-3-1--3--3-3-3-6-5----------------5--5--5-5-6-----6-----|
C|--------------8--8--8-8----------------------------------------6---6---6---6------------------------|

🎸 Bridge:

(Rest)

🎸 Chorus:

F|----------------------------------------------------------------------------------------------------|
C|----------------------------------------------------------------------------------------------------|
G|-3--3-3-3-6-5----------------5--5--5-5-6--6--6--6-3--3-3-3-6-5----------------5--5--5-5-6--6--6--6--|
C|--------------6---6---6---6------------------------------------6---6---6---6------------------------|

F|----------------------------------------------------------------------------------------------------|
C|----------------------------------------------------------------------------------------------------|
G|-3--3-3-3-6-5-----------6-5--3----3----1-3-1-3-1--3--3-3-3-6-5----------------5--5--5-5-6-----6-----|
C|--------------8--8--8-8----------------------------------------6---6---6---6------------------------|

************************************

| x  Dead note
| h  Hammer-on
| /  Slide up

************************************

Almost there ...

Sign in to get your own page with links to favourite songs and more. You are just one click away...

Login with Facebook Login with Google