Search tabs and chords

Browse bands and artists

A B C D E F G H I J K L M N O P Q R S T U V W X Y Z #

Log in

[ Register here | Forgot password ]

Guitar Tabs Explorer
Print

Bass tabs :

Nights Are Forever Without You bass tab by England Dan John Ford Coley

-------------------------------------------------------------------
                     Artist - England Dan John Ford Coley
                    **************************************
                    Song - Nights Are Forever Without You
                   ***************************************
                 Album - Nights Are Forever Without You (1976)
                ***********************************************
                           Tabbed By - Ayreon77
                          **********************
-------------------------------------------------------------------

Intro
******
G|-----------------|
D|---------------s-|
A|-7~~~--7~~~--14\-|
E|-----------------|


-------------------------------
00:07
Verse 1
********
G|-------------------------------|-------------------------------|
D|---------------s--4~~----------|---------------s--4~~----------|
A|-7~~~--7~~~--14\------2~~--7~~-|-7~~~--7~~~--14\------2~~--7~~-|
E|-------------------------------|-------------------------------|


-------------------------------
00:30
Chorus
*******
G|-----------------------------|-------------------------------------------|
D|-4-4~~~-6-6~~~-7-7~~~--------|-4-4~~~-6-6~~~-7-7~~-7-7-7-------s--9-9--s-|
A|----------------------7-7~~~-|--------------------------------7\9-----9\-|
E|-----------------------------|---------------------------7-7-------------|

00:45
G|------------------------|--------------------------|
D|------------------------|--------------------------|
A|------2-2-0-0--0-0--0-2-|-----2-2-0--0-0-0-0-0-0-0-|
E|-0-0--------------------|-0-0----------------------|


G|------------------------|--------------------------|
D|------------------------|--------------------------|
A|------2-2-0-0--0-0--0-2-|------2--0--0-0-0-0-0-0-0-|
E|-0-0--------------------|-0-0----------------------|


-------------------------------
01:08
Sm SOLO
*********
G|--------------------|--------|
D|--------------------|--------|
A|-------2--2-2--0--0-|--7~~~~-|
E|-0-0-0--------------|--------|


-------------------------------
01:20
Verse 2
********
G|-------------------------------|-------------------------------|
D|---------------s--4~~----------|---------------s--4~~----------|
A|-7~~~--7~~~--14\------2~~--7~~-|-7~~~--7~~~--14\------2~~--7~~-|
E|-------------------------------|-------------------------------|


-------------------------------
01:43
Chorus
*******
G|-----------------------------|-------------------------------------------|
D|-4-4~~~-6-6~~~-7-7~~~--------|-4-4~~~-6-6~~~-7-7~~-7-7-7-------s--9-9--s-|
A|----------------------7-7~~~-|--------------------------------7\9-----9\-|
E|-----------------------------|---------------------------7-7-------------|

01:57
G|------------------------|--------------------------|
D|------------------------|--------------------------|
A|------2-2-0-0--0-0--0-2-|-----2-2-0--0-0-0-0-0-0-0-|
E|-0-0--------------------|-0-0----------------------|

G|------------------------|--------------------------|--------------------------|
D|------------------------|--------------------------|--------------------------|
A|------2-2-0-0--0-0--0-2-|------2--0--0-0-0-0-0-0-0-|------2--0--0-0-0-0-0-0-0-|
E|-0-0--------------------|-0-0----------------------|-0-0----------------------|


-------------------------------
02:26
Outro
******
G|--------------------|
D|--------------------|Repeat
A|------2-2--0-0--0-0-|   And
E|-0-0----------------|     Fade............



ENJOY...........

"Nights Are Forever Without You" is a song off of duo England Dan & John Ford Coley´s fourth album, "Nights are forever". This became their breakthrough album. "Nights Are Forever Without You" was released in 1976.

Comments

England Dan John Ford Coley bass tabs for Nights are forever without you