Log in

One click and you are in

Login with Facebook Login with Google

Why sign up and log in

Guitar Tabs Explorer
Emma Ruth Rundle bass tabs for Darkhorse

Bass tabs

Tuning: Standard (E A D G)


G|---------------------------------------------|
D|---------------------------------------------|
A|----------1---1-3----------------1---1-3-----|
E|--333-333----------1-----333-333---------1---| x3

G|---------------------------------------------|
D|---------------------------------------------|
A|----------3-~~~~-6-~~~~---------1---1-3------|
E|--333-333---------------333-333---------1----| x2

G|---------------------------------------|
D|---------------------------------------|
A|--33-333---6~~~~--------33-333---6~~~~-|
E|---------------------------------------|

G|----------------------------------------------------|
D|----------------------------------------------------|
A|------------------------------666-66-66-666-66-66---|
E|--333-33-33-33-111-11-////-66-----------------------| x2


G|---------------------------------------------|
D|---------------------------------------------|
A|----------1---1-3----------------1---1-3-----|
E|--333-333----------1-----333-333---------1---| x3

G|---------------------------------------------|
D|---------------------------------------------|
A|----------3-~~~~-6-~~~~---------1---1-3------|
E|--333-333---------------333-333---------1----| x2

G|---------------------------------------|
D|---------------------------------------|
A|--33-333---6~~~~--------33-333---6~~~~-|
E|---------------------------------------|

G|----------------------------------------------------|
D|----------------------------------------------------|
A|------------------------------666-66-66-666-66-66---|
E|--333-33-33-33-111-11-////-66-----------------------| x3



G|------------------------------------|
D|------------------------------------|
A|--6~~-3~~-1~~-----6~~-3~~-1~~-------|
E|--------------3~~-------------3-~~--| x2

G|----------------------------------------------------|
D|----------------------------------------------------|
A|------------------------------666-66-66-666-66-66---|
E|--333-33-33-33-111-11-////-66-----------------------| x3


This Is My First Tab.
I Hope You Enjoy Them.
If You Have Any Comment, Text Me On Rafael.molinelli@gmail.com


************************************

| ~ Vibrato
| / Slide up

************************************
ⓘ Bass guitar tab for 'Darkhorse' by Emma Ruth Rundle, a female indie rock artist from Los Angeles, CA. Emma Ruth Rundle was born in 1983.

Almost there ...

Sign in to get your own page with links to favourite songs and more. You are just one click away...

Login with Facebook Login with Google