Log in

One click and you are in

Login with Facebook Login with Google

Why sign up and log in

Guitar Tabs Explorer
Eminem tabs for Say goodbye hollywood

Guitar tabs

eminem
                          say goodbye hollywood


intro (bass)
----------------------|
----------------------|
-7-----4-----3------0-|
----------------------|


gtr riff I
-----------------------------------------|
-----------------------------------------|listen for rythem
-----------------------------------------|
-77777777-44444444-33333333-00000000-----|
-----------------------------------------|
-----------------------------------------|


gtr riff II
-----------------------------------------------|
-----------------------------------------------|
-----------------------------------------------|
--------------------7--------------------------|
---7---5-7-8-5-7------7-8-5-7----5-7-5-3-2-(2)-|
-5---------------------------------------------|


sweet song..

Almost there ...

Sign in to get your own page with links to favourite songs and more. You are just one click away...

Login with Facebook Login with Google