Log in

One click and you are in

Login with Facebook Login with Google

Why sign up and log in

Guitar Tabs Explorer
Ellis tabs for I dont have the energy

Guitar tabs

Album: Soft Day, Blueprint Live
Tabbed by: A chord diagramC majorC Topinka (wfd379@yahoo.com)

Tuning: standard
Capo: none

I apologize, I can~Rt tab the timing to save my life.  This is
a rough idea, and listening to the recording will give you a
good handle on the timing...
Verse (Also intro/outro)
E:||-5---------|-0---------|-5----------|-0----0-------------||
B:||-5---------|-3---------|-5----------|-3----3-------------||
G:||-5---------|-0---------|-5----------|-0----5-------------||
D:||-5---------|-4---------|-5----------|-4----4-------------||
A:||-x---------|-5---------|-x----------|-5----5-------------||
E:||-x---------|-x---------|-x----------|-x----x-------------||
(repeat until chorus)


Chorus
E:||-3-----------|-5-----------|-3----------|-5--------------||
B:||-1-----------|-3-----------|-1----------|-3--------------||
G:||-0-----------|-0-----------|-0----------|-0--------------||
D:||-2-----------|-4-----------|-2----------|-4--------------||
A:||-3-----------|-5-----------|-3----------|-5--------------||
E:||-0-----------|-0-----------|-0----------|-0--------------||
(repeat X 1, on the second end with two stops)

For the chorus, basically set up like a A chord diagramC majorC and use your pinky on the
high A chord diagramE MajorE
string.


____________________________________________________________________________

Almost there ...

Sign in to get your own page with links to favourite songs and more. You are just one click away...

Login with Facebook Login with Google