Log in

One click and you are in

Login with Facebook Login with Google

Why sign up and log in

Guitar Tabs Explorer
Cass Elliot bass tabs for New world coming

Bass tabs

Tuning: Standard (E A D G)

Difficulty: Novice


Tuning: EADG

0:05

G|------------------------------------------------|
D|2-----------------------2---------------2-2-----|
A|------------2---------------------2-4---------4-|
E|------------------------------------------------|

G|------------------------------------------------------------------------------------------------|
D|2-----------------------2---------------2-2-----2-----------------------2---------------2-2-----|
A|------------2---------------------2-4---------4-------------2---------------------2-4---------4-|
E|------------------------------------------------------------------------------------------------|

G|------------------------------------------------------------------------------------------------|
D|2-----------------------2---------------2-2-----6-----------------------------------------------|
A|------------2---------------------2-4---------4-------------4-----------0-----------2-----------|
E|------------------------------------------------------------------------------------------------|

0:27

G|------------------------------------4-----------------------------------------------------------|
D|4---------4-6-----------7---------7-------7-----6---------6-----6-6-----------------------------|
A|------------------------------------------------------------------------4---------4-4---6-7---4-|
E|----------------------------------------------------------------------4-------------------------|

G|------------------------------------------------------------------------|
D|4---------4-4---------4-6-----------6-----------7---------7-7-----------|
A|------------------------------------------------------------------------|
E|------------------------------------------------------------------------|

G|4-----4-----4-----4-----2h4-----------------------|
D|----4-------------------------4-------------1-----|
A|--------------------------------2-----2---4-------|
E|--------------------------------------------------|

0:46

G|------------------------------------------------------------------------------------------------|
D|2-----------------------2---------------2-2-----2-----------------------2---------------2-2-----|
A|------------2---------------------2-4---------4-------------2---------------------2-4---------4-|
E|------------------------------------------------------------------------------------------------|

G|------------------------------------------------------------------------------------------------|
D|2-----------------------2---------------2-2-----6-----------------------------------------------|
A|------------2---------------------2-4---------4-------------4-----------0-----------2-----2-----|
E|------------------------------------------------------------------------------------------------|

1:04

G|------------------------------------4-----------------------------------------------------------|
D|4---------4-6-----------7-----------------7-----6---------6-6---6-------------------------------|
A|------------------------------------------------------------------------4---------4-4---6-7---4-|
E|----------------------------------------------------------------------4-------------------------|

G|------------------------------------------------|
D|------4-----------------------------------------|
A|------------------------------2---------------2-|
E|------------------------------------------------|

1:17

G|------------------------------------------------------------------------------------------------|
D|2-----------------------2---------------2-2-----2-----------------------2---------------2-2-----|
A|------------2---------------------2-4---------4-------------2---------------------2-4---------4-|
E|------------------------------------------------------------------------------------------------|

G|------------------------------------------------------------------------------------------------|
D|2-----------------------2---------------2-2-----6-----------------------------------------------|
A|------------2---------------------2-4---------4-------------4-----------0-----------2-----2-----|
E|------------------------------------------------------------------------------------------------|

1:34

G|------------------------------------4-----------------------------------------------------------|
D|4---------4-6-----------7-----------------7-----6-----6---6-----6-------------------------------|
A|------------------------------------------------------------------------4---------4-4---6-7---4-|
E|----------------------------------------------------------------------4-------------------------|

G|------------------------------------------------|
D|------4-----------------------------------------|
A|------------------------------2-----------------|
E|------------------------------------------------|

1:47 Until fadeout.

G|------------------------------------------------------------------------------------------------|
D|2-----------------------2---------------2-2-----2-----------------------2---------------2-2-----|
A|------------2---------------------2-4---------4-------------2---------------------2-4---------4-|
E|------------------------------------------------------------------------------------------------|

↓ Add and view comments below ↓

What do you think about this song and these tabs?

Add your comments, questions, rant or a thumbs up below.

Almost there ...

Sign in to get your own page with links to favourite songs and more. You are just one click away...

Login with Facebook Login with Google