Log in

One click and you are in

Login with Facebook Login with Google

Why sign up and log in

Guitar Tabs Explorer
Cass Elliot bass tabs for A song that never comes

A Song That Never Comes bass tab by Cass Elliot

Cass Elliot bass tabs for A song that never comes

Bass tabs

Tuning: EADG

G|----------------------------------------------------------------|
D|11----------11------------------11----------11--------------\---|
A|----------------------------------------------------------------|
E|----------------------------------------------------------------|

0:05

G|----------------------------------------------------------------|
D|----------------------------------------------------------------|
A|4-----------4---4---------------6-----------6---6---------------|
E|----------------------------------------------------------------|

G|----------------------------------------------------------------|
D|4-----------4-------3-------------------------------------------|
A|------------------------6---4---------------4---4---------------|
E|----------------------------------------------------------------|

G|----------------------------------------------------------------|
D|----------------------------------------------------------------|
A|4-----------4---4---------------1-----------1---1-----------/---|
E|----------------------------------------------------------------|

G|----------------------------------------------------------------|
D|------------------------5-------6-----------6-----------6-------|
A|6-----------6---6-----------------------------------6-------6---|
E|----------------------------------------------------------------|

0:20

G|----------------------------------------------------------------|
D|----------------------------------------------------------------| x2
A|4-----------4---4-----------4---4-----------4---4-----------4---|
E|----------------------------------------------------------------|

G|----------------------------------------------------------------|
D|----------------------------------------------------------------|
A|4-----------4-----------4---\---1-----------1---1-------1---/---|
E|----------------4-----------------------------------------------|

G|--------------------------------|
D|------------------------5-------|
A|6-----------6-------------------|
E|--------------------------------|

G|----------------------------------------------------------------|
D|6---4-----------------------6-----------6---6-------4-----------|
A|--------6-----------3---6-----------6-------------------6-------|
E|------------4-----------------------------------------------4---|

0:36

G|----------------------------------------------------------------|
D|------------------------3-------4-------4-------4---3-----------|
A|4-------4-------4---6-------4-----------------4---------6-------|
E|--------------4---------------------------------------------4---|

G|----------------------------------------------------------------|
D|----------------------------------------3-----------------------|
A|4---4-------------------3---6---4---6-------------------3-------|
E|------------4-------6-----------------------4-------6-------4---|

G|----------------------------------------------------------------|
D|----------------------------------------------------------------|
A|4-------4-------4-----------4-------4-------------------4---6---|
E|--------------4-----4---6-------------------4-------6-----------|

G|--------------------------------|
D|4-------4-------4-------4---5---|
A|--------------4-----4-----------|
E|--------------------------------|

G|----------------------------------------------------------------|
D|6---6-----------6---------------6---6-------6-------4-----------|
A|------------6-------6-------6---------------------------6-------|
E|----------------------------------------------------------------|

G|----------------------------------------------------------------|
D|--------------------------------3-----------3---4---3-----------|
A|4-----------4---6-----------6---------------------------6-------|
E|------------------------------------------------------------4---|

0:56

G|----------------------------------------------------------------|
D|----------------------------------------------------------------|
A|4-----------4---4---------------6-----------6---6-------6-------|
E|----------------------------------------------------------------|

G|----------------------------------------------------------------|
D|4-----------4-------3-------------------------------------------|
A|------------------------6---4---------------4-------------------|
E|------------------------------------------------------------4---|

G|----------------------------------------------------------------|
D|----------------------------------------------------------------|
A|4-----------4---4---------------1-----------1---1-----------/---|
E|----------------------------------------------------------------|

G|----------------------------------------------------------------|
D|------------------------5-------6-----------6-----------6-------|
A|6-----------6---6-----------------------------------6-------6---|
E|----------------------------------------------------------------|

1:11

G|----------------------------------------------------------------|
D|----------------------------------------------------------------| x2
A|4-----------4---4-----------4---4-----------4---4-----------4---|
E|----------------------------------------------------------------|

G|----------------------------------------------------------------|
D|----------------------------------------------------------------|
A|4-----------4---4-------4---\---1-----------1---1-------1---/---|
E|----------------------------------------------------------------|

G|--------------------------------|
D|------------------------5-------|
A|6-----------6-------------------|
E|--------------------------------|

G|----------------------------------------------------------------|
D|6---4-----------------------6-----------6---6-------4-----------|
A|--------6-----------3---6-----------6-------------------6-------|
E|------------4-----------------------------------------------4---|

1:27

G|----------------------------------------------------------------|
D|------------------------3-------4-------4-------4---3-----------|
A|4-------4-------4---6-------4-----------------4---------6-------|
E|--------------4---------------------------------------------4---|

G|----------------------------------------------------------------|
D|----------------------------------------------------------------|
A|4---4-------------------3-------4---4-------------------3-------|
E|------------4-------6-------4---------------4-------4-------4---|

G|----------------------------------------------------------------|
D|----------------------------------------------------3-----------|
A|4-------4-------4-----------4-------4-------6---------------4---|
E|--------------4-----4---6---------------------------------------|

G|--------------------------------|
D|4-------4-------4-------4-------|
A|--------------4-----4-------4---|
E|--------------------------------|

G|----------------------------------------------------------------|
D|6-----------6-------6-------6---------------6-------4-----------|
A|--------------------------------------------------------6-------|
E|----------------------------------------------------------------|

G|--------------------------------|
D|----------------4---3-----------|
A|4-----------4-----------6-------|
E|----------------------------4---|

1:45

G|----------------------------------------------------------------|
D|--------------------------------2-----------2---2---------------|
A|4-----------4---4-----------------------------------------------|
E|----------------------------------------------------------------|

G|----------------------------------------------------------------|
D|4-----------4---4---------------------------4-------3-----------|
A|--------------------------------4---------------------------4---|
E|----------------------------------------------------------------|

G|----------------------------------------------------------------|
D|--------------------------------2-----------2---2---------------|
A|------------4---4-----------------------------------------------|
E|----------------------------------------------------------------|

G|--------------------------------|
D|4-----------4---4---4-----------|
A|--------------------------------|
E|--------------------------------|

G|----------------------------------------------------------------|
D|6---6-------6-------6-------6-------6-------6-------6-------6---|
A|----------------------------------------------------------------|
E|----------------------------------------------------------------|

2:02

G|----------------------------------------------------------------|
D|------------------------3-------4-------4-------4---3-----------|
A|4-------4-------4---6-------4-----------------4---------6-------|
E|--------------4---------------------------------------------4---|

G|----------------------------------------------------------------|
D|--------------------------------4-------4---6-------6-------6---|
A|4---4-------------------3-----------4---------------------------|
E|------------4-------6-------4-----------------------------------|

G|----------------------------------------------------------------|
D|--------------------------------4---4---------------4-------4---|
A|4-------4-------4---4-------4---------------4-----------4-------|
E|----------------------------------------------------------------|

G|6---------------------------------------------------------------|
D|--------3---6-------6-------6---4-------4---6-------6-------6---|
A|----4-------------6-----6-----------4---------------------------|
E|----------------------------------------------------------------|

G|--------------------------------------------------------------------------------|
D|------------------------3-------4---4-------4-------3---------------------------| fades out here.
A|4-------4-------4---6-------4---------------------4-----6-------4---4-----------|

↓ Add and view comments below ↓

What do you think about this song and these tabs?

Add your comments, questions, rant or a thumbs up below.

Almost there ...

Sign in to get your own page with links to favourite songs and more. You are just one click away...

Login with Facebook Login with Google