Log in

One click and you are in

Login with Facebook Login with Google

Why sign up and log in

Guitar Tabs Explorer
Elgar Edward guitar tabs for Op 39 pomp and circumstance - march no 1 in d

Op 39 Pomp And Circumstance - March No 1 In D tab by Elgar Edward

Elgar Edward guitar tabs for Op 39 pomp and circumstance - march no 1 in d

Guitar tabs

------------------------------------------------------------------

Arranged for guitar by Jan Tomaszewski - laertes@interia.pl

Key: A chord diagramC majorC major

Alla Marcia
------------

A chord diagramE MajorE||--8----8----|--7--8--10----|--5---------|--3---------|--1----1----|
A chord diagramBB||--8----8----|--6-----------|------------|--1----1----|--1----1----|
A chord diagramG+G||--9----9----|--4-----10----|--5----5----|--0----0----|--2----2----|
A chord diagramD MajorD||------------|--------------|--5----5----|--2----2----|--3----3----|
A chord diagramA augmentedA||------------|--------------|--7----7----|------------|------------|
A chord diagramE MajorE||--8----8----|--------------|------------|------------|------------|
--0-----3----|------------|------------|--0---------|--2--3-----5--|
-----6-------|--3---------|--3----0----|--1---------|--3-----------|
--5-----5----|--5----5----|--4---------|--0----0----|--2-----2-----|
--5-----5----|--4----4----|------------|------------|--------------|
-------------|--0----0----|------------|--3----3----|--3-----3-----|
-------------|------------|--3----3----|------------|--------------|


--10---------|--0---------|--8----8----|--8--7-----7-5-|--7---------|
--8----------|--8----0----|--8----8----|--7------------|--0---------|
--0-----0----|------------|--9----9----|---------------|--0---------|
-------------|--9---------|------------|--0-----0------|-------3----|
-------------|-------7----|--0----0----|---------------|------------|
--------7----|------------|------------|---------------|------------|


--3---------|--8----8-----|--7---8--10----|--5---------|--3---------|
--0---------|--8----8-----|---------------|------------|--1----1----|
------------|--9----9-----|--10-----10----|--5----5----|--0----0----|
--2----0----|-------10----|--9------0-----|--5----5----|--2----2----|
------------|-------------|---------------|--7----7----|------------|
------------|--8----------|---------------|------------|------------|

--1----1----|--0-----3----|------------|------------|--0-------0--|
--1----1----|-----6-------|--3---------|--3----0----|--1----------|
--2----2----|--5-----5----|--5----5----|--4---------|--0----0-----|
--3----3----|--5-----5----|--4----4----|------------|-------------|
------------|-------------|--0----0----|------------|--3----3-----|
------------|-------------|------------|--3----3----|-------------|


--2--3-----5--|--10---------|--3---------|--13----13----|--13--12-----12-10-|
--3-----------|--8----------|--3---------|--13----13----|--12---------------|
--2-----2-----|--0-----0----|--0----0----|--------------|--0-------0--------|
--------------|-------------|------------|--------------|-------------------|
--3-----3-----|-------------|--2----2----|--------------|-------------------|
--------------|--------7----|------------|--13----13----|-------------------|


--12----8----|--12----0-----|--5-------5--|--7--8-----10--|--0---------|
--------5----|--12----11----|--6----------|--5------------|--8---------|
--------5----|--9-----------|-------------|--0------------|------------|
--10---------|--10----10----|--3----------|--------0------|------------|
-------------|--------------|-------3-----|---------------|------------|
-------------|--------------|-------------|---------------|--0----8----|


--8---------|--8--------|--13----12----|--------10----|--8--------|----------||
------------|--6--------|--------------|--------------|-----------|----------||
--9---------|-----------|--0-----------|--12----------|--9--------|----------||
------------|--0--------|--------------|--------------|-----------|----------||
--0----7----|-----------|--------------|--------------|-----------|----------||
------------|-----------|--------------|--------------|--8--------|----------||

↓ Add and view comments below ↓

What do you think about this song and these tabs?

Add your comments, questions, rant or a thumbs up below.

Almost there ...

Sign in to get your own page with links to favourite songs and more. You are just one click away...

Login with Facebook Login with Google