Log in

One click and you are in

Login with Facebook Login with Google

Why sign up and log in

Guitar Tabs Explorer
Danny Elfman tabs for Victors piano

Intro

this part is not the mellody thats guitar 1 which i will post very soon please rate this
DROP A chord diagramC majorC
victors piano solo:

E--------------------------------------|
B--------------------------------------|
G--------------------------------------|    4X’s
D--------------------------------------|
A-----------3---6---3------------------|
C--1---7-----------------7---1---------|
E------------------------------------------------------|
B------------------------------------------------------|
G------------------------------------------------------|
D---------------4--------------------2---6---2---------|
A-----------1-------5---1------1-----------------1-----|
C--0---6---------------------4-------------------------|

E---------------------------------------------|
B---------------------------------------------|
G----------------6---------------------6------|
D------------4-------7---4--------6-----------|
A--------3---------------------3--------------|
C--5------------------------------------------|

E-----------------------------------------------|
B-----------------------------------------------|
G------------2-----------------6----------------|
D-------1------------------4-------7---4--------|
A--0------------------3--------------------1----|
C-----------------5-----------------------------|


E----------------------------------------------------|
B------------------------------------------7---4-----|
G-------4---8---4-------8---4-------4----------------|
D--4-----------------4-----------4-------------------|
A----------------------------------------------------|
C----------------------------------------------------|

E-------------------------------------------------------------|
B--9---9-----------9---9---9---9-----------------9------------|
G--8-------8-----------8-----------------8--------------------|(BREAK)
D---------------6---------------------6--------6--------------|
A-------------------------------------------------------------|
C-------------------------------------------------------------|

E---------------------------------------------------------|
B---------------------------------------------------------|
G---------------------------------------------------------|
D----------------6---2--------4---------------------3-----|
A-----------3-------------3--------3---0-------2----------|
C--1---7------------------------------------4-------------|

E----------------------------------------------------------------------------|
B----------------------------------------------------------------------------|
G------------2---------------------------------------------------------------|
D-------3------------------6---6---2---6---2-----------6---2---6--2----------|
A--1------------------5-------------------------3----------------------------|
C-----------------8----------------------------------7-----------------------|


E--------------------------------------------------------|
B--------------------------------------------------------|
G--------------------------------------4-------4---------|
D-----------6---2---6---2----------------4-------4-------|
A--3-------------------------3---------------------------|
C-------7-------------------------7----------------------|

E----------------------------------------------|
B----------------------------------------------|
G----------------------------------------------|
D--------------------2---6---2-----------------|
A--5---1-------1-----------------1-------------|

Almost there ...

Sign in to get your own page with links to favourite songs and more. You are just one click away...

Login with Facebook Login with Google