Log in

One click and you are in

Login with Facebook Login with Google

Why sign up and log in

Guitar Tabs Explorer
Elevation Worship bass tabs for Graves into gardens

Graves Into Gardens bass tab by Elevation Worship

Elevation Worship bass tabs for Graves into gardens

Bass tabs

Tuning: Standard (E A D G)

🎸 Verse 3: come in after(im not afraid)
G|-----------------|
D|-----------------|
A|-----------------|
E|-5--10--5--2--0--|
B|----------------3|


🎸 Verse 4:
G|-----------------|
D|-----------------|
A|-----------------|
E|-5--7---5--2--0--|
B|----------------3|

(chorus)
G|---------------|
D|---------------|
A|---------------|(X2)
E|-5--2----5-----|
B|-------3-------|

first 🎸 Bridge:
G|----------------------------|
D|----------------------------|
A|----------------------------|(X2)
E|-5-5-5-5-5-5-----------2-2-2|
B|--------------3--3--3-------|

Almost there ...

Sign in to get your own page with links to favourite songs and more. You are just one click away...

Login with Facebook Login with Google