Log in

One click and you are in

Login with Facebook Login with Google

Why sign up and log in

Guitar Tabs Explorer
Electric Six tabs for Future boys

Guitar tabs with lyrics

Band: Electric Six
Album: Senor Smoke
Tabbed by: Ige (Ian_statham@hotmail.com)

e|-----------------------------------------------|
b|---------------------------------------------- |
g|----------------------------------------------  \ play this 15 times
d|-------12-------------------------------------  /
a|----------12--8-8-10-8------------------------ |
A chord diagramE MajorE|----10------------------13-13---8-8-8-10-------|

Bobby goes to work on mondays
He's got a car, but he don't drive
Billy meets him at the office
And no one knows he's alive!

Tommy's closing a big deal
And he's running late for Squash
Mikey's talking on his cell phone
His confidence is never lost

Here come the Future Boys (future boys)
Here come the Future Boys (future boys)
Meet the Future Boys! (future boys)


    a5        c5
e|-----------------------------------------------
b|-----------------------------------------------
g|-----------------------------------------------
d|--7-7-7-7---10-10-10-10------------------------
a|--7-7-7-7---10-10-10-10------------------------
A chord diagramE MajorE|--5-5-5-5---8--8--8--8-------------------------

Making money, OH MY GOD!

      d5     a5    f5     c5
e|------------------------------------------------|
b|----------------------------------------------- |
g|-----------------------------------------------  \This is played during
d|----12-----7-----15-----10---------------------  /the synth solo
a|----12-----7-----15-----10--------------------- |
A chord diagramE MajorE|----10-----5-----13-----8---------------------- |


Looking so good you want to eat them
Watching how future women treat them
No weapon on earth could ever defeat them

      e5  g5   c5   a5
e|---------------------------------------------
b|---------------------------------------------
g|----9---12-----------------------------------
d|----9---12---10---7--------------------------
a|----7---10---10---7--------------------------
A chord diagramE MajorE|-------------8----5--------------------------

Here you see the creature in his natural habitat
Can't take away his money 'cause he's got too much of that

   [no guitar for ^this part^, ]

    e5              a5   c5
e|--------------------------------
b|--------------------------------
g|--------------------------------
d|--2---2---2---2---7----10-------
a|--2---2---2---2---7----10-------
A chord diagramE MajorE|--0---0---0---0---5----8--------


Future Boys will be Future Boys, hey!

e|----------------------------------------------
b|----------------------------------------------
g|----------------------------------------------
d|-------12-------------------------------------
a|----------12--8-8-10-8------------------------
A chord diagramE MajorE|----10------------------13-13---8-8-8-10------



 [Second half of song is same notes as first part of song]


Stevie's joined a corporation
Another bee for the beehive
Johnny makes love to a dummy
Says, "ain't it good to be alive "

Here come the Future Boys (future boys)
Here come the Future Boys (future boys)
Meet the Future Boys! (future boys)
Making money, OH MY GOD!

Looking so good you want to eat them
Watching how future women treat them
No weapon on earth could ever defeat them

Here you see the creature in his natural habitat
Can't take away his money 'cause he's got too much of that
Future Boys will be Future Boys, hey!

I say, Future Boys will be Future Boys, hey!
Future Boys will be Future Boys, hey!
Oh, Future Boys will be Future Boys, yeah...

Almost there ...

Sign in to get your own page with links to favourite songs and more. You are just one click away...

Login with Facebook Login with Google