Log in

One click and you are in

Login with Facebook Login with Google

Why sign up and log in

Guitar Tabs Explorer
Elastica bass tabs for Waking up

Bass tabs with lyrics

Intro:
----------------|----------------|----------------|----------------|
----------------|----------------|----------------|----------------|
0--0-0--3--3-3--|----------------|0--0-0--5--5-5--|----------------|
----------------|3-3-3-5---5-5-5-|----------------|3-3-3-5---5-5-5-| 2x

----------------|
----2---0-2-0---|
0-3---3-------3-|
----------------|

----------------|----------------|----------------|----------------|
----------------|----------------|----------------|----------------|
0--0-0--3--3-3--|----------------|0--0-0--5--5-5--|----------------|
----------------|3-3-3-5---5-5-5-|----------------|3-3-3-5---5-5-5-|

Verse:
----------------|----------------|----------------|----------------|
----------------|----------------|----------------|----------------|
0--0-0--3--3-3--|----------------|0--0-0--5--5-5--|----------------|
----------------|3-3-3-5---5-5-5-|----------------|3-3-3-5---5-5-5-|

I'd work very hard but I'm lazy
I can't take the pressure and it's starting to show
In my heart you know how it pains me
A life of leisure is no life you know


Chorus:
----------------|----------------|----------------|----------------|
----------------|----------------|----------------|----------------|
0--0-0--3--3-3--|----------------|0--0-0--5--5-5--|----------------|
----------------|3-3-3-5---5-5-5-|----------------|3-3-3-5---5-5-5-|

Waking up and getting up has never been easy,
Oh oh, I think you should know.
Waking up and getting up has never been easy,
Oh, oh, I think you should know.
Oh, oh, I think you should go.
Make a cup of tea, and put a record on.

Solo I:
----------------|----------------|----------------|----------------|
----------------|----------------|----------------|----------------|
0--0-0--3--3-3--|----------------|0--0-0--5--5-5--|----------------|
----------------|3-3-3-5---5-5-5-|----------------|3-3-3-5---5-5-5-| 2x

----------------|
----2---0-2-0---|
0-3---3-------3-|
----------------|

----------------|----------------|----------------|----------------|
----------------|----------------|----------------|----------------|
0--0-0--3--3-3--|----------------|0--0-0--5--5-5--|----------------|
----------------|3-3-3-5---5-5-5-|----------------|3-3-3-5---5-5-5-|


Verse:
I'd work very hard but I'm lazy
I've got a lot of songs but they're all in my head.
I'll get a guitar and a lover who pays me
If I can't be a star I won't get out of bed.


Chorus:
Waking up and getting up has never been easy,
Oh, oh, I think you should know.
Waking up and getting up has never been easy,
Oh, oh, I think you should know.
Oh, oh, I think you should go.
Make a cup of tea, and put a record on.


Solo II:
----------------|----------------|----------------|----------------|
----------------|----------------|----------------|----------------|
0--0-0--3--3-3--|----------------|0--0-0--5--5-5--|----------------|
----------------|3-3-3-5---5-5-5-|----------------|3-3-3-5---5-5-5-| 6x

----------------|
----2---0-2-0---|
0-3---3-------3-|
----------------|


Chorus:
Waking up and getting up has never been easy,
Oh, oh, I think you should know.
Waking up and getting up has never been easy,
Oh, oh, I think you should know.
Oh, oh, I think you should go.
Make a cup of tea, and put a record on.

Almost there ...

Sign in to get your own page with links to favourite songs and more. You are just one click away...

Login with Facebook Login with Google