Log in

One click and you are in

Login with Facebook Login with Google

Why sign up and log in

Guitar Tabs Explorer
El Profesor chords for Bella ciao ukulele

Guitar chords

Tuning: G C E A (G C E A)

A|-----0--2--3--0-----0--2--3--0--------|
E|--0--------------0--------------------|
C|--------------------------------------|
G|--------------------------------------|

A|-----0--2--3--2--0--3--2--0--7--7-----|
E|--0-----------------------------------|
C|--------------------------------------|
G|--------------------------------------|

A|--7--5--7--8--8-----8--7--5--8--7-----|
E|--------------------------------------|
C|--------------------------------------|
G|--------------------------------------|

A|--7--5--3--2--7--3--2--0--------------|
E|--------------------------------------|
C|--------------------------------------|
G|--------------------------------------|


Dm
Una mattina mi son svegliato
A7
O bella ciao bella ciao bella ciao ciao ciao
Gm Dm
Una mattina mi son svegliato
A7 Dm
E ho trovato l'invasor

Dm
O partigiano portami via
A7
O bella ciao bella ciao bella ciao ciao ciao
Gm Dm
Partigiano portami via
A7 Dm
Che mi sembra di morir

Almost there ...

Sign in to get your own page with links to favourite songs and more. You are just one click away...

Login with Facebook Login with Google